Song name
# A B C D E F G H I J K L M N O P Q R S T U V W X Y Z

Hell Is For Heroes - Only The Ridiculous Will Survive tab

Help us improve GuitareTab! Take a short survey!
I havn't tabbed any for ages. I forgot lol. But I am back. And this is right. Though the 
might be wrong. I don't think it is

It has very weird time signatures and changes but they're easy when you know the 
of the song. Don't worry
TUNING: DADGBe

::ambience::

(guitar 1)

e|-----------|   e|-----------|
B|-----------|   B|-----------|
G|-7-9-9-----|   G|-7-9-9h10--|
D|------10-7-|   D|---------7-|
A|-----------|   A|-----------|
D|-----------|x3 D|-----------|

x6

bass and bass drum

(guitar 1)

e|-------------------------------|
B|-------------------------------|
G|-------------------------------|
D|00000000000000--88888888888888-|
A|00000000000000--88888888888888-|
D|00000000000000--88888888888888-|

(guitar 2)

e|-------------|
B|-------------|
G|14-----15----|
D|---x12----x4-|
A|12-----13----|
D|-------------|

e|----------------------------------------|
B|----------------------------------------|
G|----------------------------------------|
D|00000000000000--888888888888/-----------|
A|00000000000000--888888888888/-----------|
D|00000000000000--888888888888/-----------|

(guitar 2)

e|-------------|
B|-------------|
G|14-----15----|
D|---x12----x4-|
A|12-----13----|
D|-------------|

e|--------------------------------------|
B|--------------------------------------|
G|--------------------------------------|
D|00000000000000--88888888888888--------|
A|00000000000000--88888888888888--------|
D|00000000000000--88888888888888--------|

(guitar 2)

e|-------------|
B|-------------|
G|14-----15----|
D|---x12----x4-|
A|12-----13----|
D|-------------|


e|--------------------------------------|
B|--------------------------------------|
G|--------------------------------------|
D|00000000000000--00000000000000--------|
A|00000000000000--00000000000000--------|
D|00000000000000--00000000000000--------|

(guitar 2)

e|-------------|
B|-------------|
G|14-----15----|
D|---x12----x4-|
A|12-----13----|
D|-------------|

(guitar 1)

e|-----------|   e|-----------|
B|-----------|   B|-----------|
G|-7-9-9-----|   G|-7-9-9h10--|
D|------10-7-|   D|---------7-|
A|-----------|   A|-----------|
D|-----------|x3 D|-----------|

(guitar 2)

e|---------------------------------|
B|---------------------------------|
G|---------------------------------|
D|88888888888888880000000000000000-|
A|88888888888888880000000000000000-|
D|88888888888888880000000000000000-|

(guitar 1)

e|-----------|   e|-----------|
B|-----------|   B|-----------|
G|-7-9-9-----|   G|-7-9-9h10--|
D|------10-7-|   D|---------7-|
A|-----------|   A|-----------|
D|-----------|x3 D|-----------|

(guitar 2)

e|---------------------------------|
B|---------------------------------|
G|5555555555555555-----------------|
D|55555555555555550000000000000000-|
A|33333333333333330000000000000000-|
D|----------------0000000000000000-|


(guitar 1)

e|-----------|   e|-----------|
B|-----------|   B|-----------|
G|-7-9-9-----|   G|-7-9-9h10--|
D|------10-7-|   D|---------7-|
A|-----------|   A|-----------|
D|-----------|x3 D|-----------|

(guitar 2)

e|---------------------------------|
B|---------------------------------|
G|---------------------------------|
D|88888888888888880000000000000000-|
A|88888888888888880000000000000000-|
D|88888888888888880000000000000000-|

(guitar 1)

e|-----------|   e|-----------|
B|-----------|   B|-----------|
G|-7-9-9-----|   G|-7-9-9h10--|
D|------10-7-|   D|---------7-|
A|-----------|   A|-----------|
D|-----------|x3 D|-----------|

(guitar 2)

e|---------------------------------|
B|---------------------------------|
G|5555555555555555-----------------|
D|55555555555555550000000000000000-|
A|33333333333333330000000000000000-|
D|----------------0000000000000000-|

vocals and drums only

(guitar 1)

e|-----------|   e|-----------|
B|-----------|   B|-----------|
G|-7-9-9-----|   G|-7-9-9h10--|
D|------10-7-|   D|---------7-|
A|-----------|   A|-----------|
D|-----------|x3 D|-----------|

x6

bass and bass drum

(guitar 1)

e|-------------------------------|
B|-------------------------------|
G|-------------------------------|
D|00000000000000--88888888888888-|
A|00000000000000--88888888888888-|
D|00000000000000--88888888888888-|

(guitar 2)

e|-------------|
B|-------------|
G|14-----15----|
D|---x12----x4-|
A|12-----13----|
D|-------------|

e|----------------------------------------|
B|----------------------------------------|
G|----------------------------------------|
D|00000000000000--888888888888/-----------|
A|00000000000000--888888888888/-----------|
D|00000000000000--888888888888/-----------|

(guitar 2)

e|-------------|
B|-------------|
G|14-----15----|
D|---x12----x4-|
A|12-----13----|
D|-------------|

e|--------------------------------------|
B|--------------------------------------|
G|--------------------------------------|
D|00000000000000--88888888888888--------|
A|00000000000000--88888888888888--------|
D|00000000000000--88888888888888--------|

(guitar 2)

e|-------------|
B|-------------|
G|14-----15----|
D|---x12----x4-|
A|12-----13----|
D|-------------|


e|--------------------------------------|
B|--------------------------------------|
G|--------------------------------------|
D|00000000000000--88888888888888--------|
A|00000000000000--88888888888888--------|
D|00000000000000--88888888888888--------|

(guitar 2)

e|-------------|
B|-------------|
G|14-----15----|
D|---x12----x4-|
A|12-----13----|
D|-------------|


(guitar 1)

e|---------------|
B|---------------|
G|---------------|
D|00000000000000-|
A|00000000000000-|
D|00000000000000-|x4

(guitar 2)

e|-------------|
B|-------------|
G|14-----15----|
D|---x12----x4-|
A|12-----13----|
D|-------------|x4

(guitar 1)

e|---------------------------------|
B|---------------------------------|
G|---------------------------------|
D|88888888888888880000000000000000-|
A|88888888888888880000000000000000-|
D|88888888888888880000000000000000-|

e|---------------------------------|
B|---------------------------------|
G|5555555555555555-----------------|
D|55555555555555550000000000000000-|
A|33333333333333330000000000000000-|
D|----------------0000000000000000-|

x3

(guitar 2)

e|-------------------|
B|-------------------|
G|7-----12-----10----|
D|--x32----x22----x12|
A|5-----10-----12----|
D|-------------------|

x3


Solo

e|10-10---------------|
B|-----11-11-----11-11|
G|----------10-10-----|
D|--------------------|
A|--------------------|
D|--------------------| x4

e|12-12---------------|
B|-----11-11-----11-11|
G|----------12-12-----|
D|--------------------|
A|--------------------|
D|--------------------| x3

e|10-10---------------|
B|-----11-11-----11-11|
G|----------12-12-----|
D|--------------------|
A|--------------------|
D|--------------------|

e|----------------------------------------|
B|10h11p10h11p10h11p10h11p10h11p10h11p10/-|
G|----------------------------------------|
D|----------------------------------------|
A|----------------------------------------|
D|----------------------------------------|

bass, bass drum and vocals

(guitar 1)

e|-----------|   e|-----------|
B|-----------|   B|-----------|
G|-7-9-9-----|   G|-7-9-9h10--|
D|------10-7-|   D|---------7-|
A|-----------|   A|-----------|
D|-----------|x3 D|-----------|

x2

(guitar 1)

e|----------------|
B|----------------|
G|----------------|
D|7777777777777777|
A|7777777777777777|
D|7777777777777777|

I dunno what guitar 2 does there....... sorry


Well; please let me know what you think. Sorry if you find it kind of hard to follow I 
my best; it is a tricky song.......
Related for Only The Ridiculous Will Survive tab