Song name
# A B C D E F G H I J K L M N O P Q R S T U V W X Y Z

Hell Is For Heroes - Folded Paper Figuers tab

-------------------------------------------------------------------------------
			     FOLDED PAPER FIGUERS - Hell is for Heroes
-------------------------------------------------------------------------------

Tabbed by:Me
Email:Park_punK@hotmail.com
This tab is only for Tom's parts during the song. Sorry i couldn't work out
Will's

Tuning:DADGBe
Intro (as i am very lazy so you can guess how many times to play this as well
as everything else)

e|---------------------------------------------------------------------------|
B|---------------------------------------------------------------------------|
G|--10-10-10-10-10-9-9-9-9-9-------------------------------------------------|
D|--0--0--0--0--0--0-0-0-0-0-10-10-10-10-10-9-9-9-9-9------------------------|
A|--0--0--0--0--0--0-0-0-0-0-0--0--0--0--0--0-0-0-0-0------------------------|
D|---------------------------0--0--0--0--0--0-0-0-0-0------------------------|

Verse
e|---------------------------------------------------------------------------|
B|---------------------------------------------------------------------------|
G|-77777-77777-77777-77777-77777-77777-77777-77777-77777-77777-77777-77777---|
D|-77777-77777-77777-77777-77777-77777-77777-77777-77777-77777-77777-77777---|
A|-55555-55555-55555-55555-55555-55555-55555-55555-55555-55555-55555-55555---|
D|---------------------------------------------------------------------------|


e|---------------------------------------------------------------------------|
B|---------------------------------------------------------------------------|
G|--77777-77777-55555-44444-77777-77777-5xxxx-4xxxxx-------------------------|
D|--77777-77777-55555-44444-77777-77777-5xxxx-4xxxxx-------------------------|
A|--55555-55555-33333-22222-55555-55555-3xxxx-2xxxxx-------------------------|
D|---------------------------------------------------------------------------|

  Chorus part 1 X2                                    
e|---------------------------------------------------------------------------|
B|---------------------------------------------------------------------------|
G|--10-10-10-10-10-9-9-9-9-9-------------------------------------------------|
D|--0--0--0--0--0--0-0-0-0-0-10-10-10-10-10-9-9-9-9-9------------------------|
A|--0--0--0--0--0--0-0-0-0-0-0--0--0--0--0--0-0-0-0-0------------------------|
D|---------------------------0--0--0--0--0--0-0-0-0-0------------------------|

Chorus part 2 X2
e|---------------------------------------------------------------------------|
B|---------------------------------------------------------------------------|
G|--10-10-10-10-10-12-12-12-12-12-14-14-14-14-14-16-16-16-16-16--------------|
D|--0--0--0--0--0--0--0--0--0--0--0--0--0--0--0--0--0--0--0--0---------------|
A|--0--0--0--0--0--0--0--0--0--0--0--0--0--0--0--0--0--0--0--0---------------|
D|---------------------------------------------------------------------------|

Bridge (reapeat alto)
e|---------------------------------------------------------------------------|
B|---------------------------------------------------------------------------|
G|--xxxx-14141414------------------------------------------------------------|
D|--xxxx---------------------------------------------------------------------|
A|--xxxx-12121212------------------------------------------------------------|
D|---------------------------------------------------------------------------|

Structure 
Intro
Verse
chorus 1
chorus 2
Verse
chorus 1
chorus 2
Bridge
Chorus 1
Chorus 2
Verse riff
| x  Mute note

===============================================================================
Tap to rate this tab
 
# A B C D E F G H I J K L M N O P Q R S T U V W X Y Z