Song name
# A B C D E F G H I J K L M N O P Q R S T U V W X Y Z

Hell Is For Heroes - Quiet Riot tab

Tuning: DADGBe

Main riff (Guitar 1)
e|-----------------------------------------------------------------|
B|-5-5-5-5-5-5-5-5-5-5-5-5-0-0-0-0-8-8-8-8-8-8-8-8-7-7-7-7-0-0-0-0-|
G|-----------------------------------------------------------------|
D|-----------------------------------------------------------------|
A|-----------------------------------------------------------------|
D|-----------------------------------------------------------------|

e|------------------------------------------------------------------------------------------------|
B|-12-12-12-12-12-12-12-12-------------------------12-12-12-12-12-12-12-12------------------------|
G|-------------------------11-11-11-11-11-11-11-11-------------------------11-11-11-11-11-11-11-11|
D|------------------------------------------------------------------------------------------------|
A|------------------------------------------------------------------------------------------------|
D|------------------------------------------------------------------------------------------------|

Main Riff (Guitar 2)
e|-----------------------------------------------------------------|
B|-5-5-5-5-5-5-5-5-5-5-5-5-8-8-8-8-5-5-5-5-5-5-5-5-5-5-5-5-8-8-8-8-|
G|-----------------------------------------------------------------|
D|-----------------------------------------------------------------|
A|-----------------------------------------------------------------|
D|-----------------------------------------------------------------|

Chorus (Guitar 1)
e|------------------------------------------------------------------------------|
B|------------------------------------------------------------------------------|
G|------------------------------------------------------------------------------|
D|-222-2-22-22-2222101010-10-1010-1010-10101010777-7-77-77-7777555-5-55-55-5555-|
A|-222-2-22-22-2222101010-10-1010-1010-10101010777-7-77-77-7777555-5-55-55-5555-|
D|-222-2-22-22-2222101010-10-1010-1010-10101010777-7-77-77-7777555-5-55-55-5555-|

Chorus (Guitar 2)
e|---------------------------------------------------------------------------------|
B|---------------------------------------------------------------------------------|
G|-9-9-9-9-9-9-9-9-14-14-14-14-14-14-14-14-9-9-9-9-9-9-9-9-14-14-14-14-14-14-14-14-|
D|---------------------------------------------------------------------------------|
A|-7-7-7-7-7-7-7-7-12-12-12-12-12-12-12-12-7-7-7-7-7-7-7-7-12-12-12-12-12-12-12-12-|
D|---------------------------------------------------------------------------------|

Riff (Guitar 1) *Outro and after second chorus*
e|---------------------------------------------------------------------------|
B|---------------------------------------------------------------------------|
G|---------------------------------------------------------------------------|
D|-2-2-2-2-2-2-2-2-2/5-5-5-5-5-5-5-5-10-10-10-10-10-10-10-10-7-7-7-7-7-7-7-7-|
A|-2-2-2-2-2-2-2-2-2/5-5-5-5-5-5-5-5-10-10-10-10-10-10-10-10-7-7-7-7-7-7-7-7-|
D|-2-2-2-2-2-2-2-2-2/5-5-5-5-5-5-5-5-10-10-10-10-10-10-10-10-7-7-7-7-7-7-7-7-|



I believe that is it. Question? Comments? Always welcome
Tap to rate this tab
# A B C D E F G H I J K L M N O P Q R S T U V W X Y Z