Song name
# A B C D E F G H I J K L M N O P Q R S T U V W X Y Z

Hell Is For Heroes - Transmit Disrupt tab

Help us improve GuitareTab! Take a short survey!
Great Song by one of my favourite bands. A lot of people have asked me to Tab this out 
I had a go.

Intro and verse

Guitar 1: Clean
E|--------------------------------------------|
B|--------------------------------------------|
G|--------------------------------------------|  Play Twice
D|--6-6-6-7-7-7-7-7-9-9-9-11-11-11-11-11------|
A|--0-0-0-0-0-0-0-0-0-0-0-0--0--0--0--0-------|
D|--------------------------------------------|

Then...

E|-------------------------------------|
B|-------------------------------------|
G|-------------------------------------|
D|--14-14-14-14---11-11-11-11----------|
A|--12-12-12-12---9--9--9--9-----------|
D|--0--0--0--0----9--9--9--9-----------|

Repeat over for verses

Chorus:

Guitar 2: Clean with Echo
E|------------------------------------------------|
B|------------------------------------------------|
G|---------------------------------9--------------|
D|-----11-9----11-9--(X2)-----11-9---9-11--(X2)---|
A|---9-------9--------------9---------------------|
D|--------------------------0---------------------|

E|----------------------|
B|----------------------|
G|----------------------|
D|-----11-9-----11-9----|
A|---9--------9---------|
D|----------------------|

Guitar 1: Clean
E|--------------------|
B|--------------------|
G|--11----9-----------|  Play twice
D|--11----11-----11---|
A|--9-----7------9----|
D|---------------9----|


Loud Bit:

Guitar 2 : Heavy Distortion
E|-----------------2-2-2-2-2-2----|
B|-----------------3-3-3-3-3-3----|
G|---2-2-2-2-2-2---4-4-4-4-4-4----| Repeat until the end
D|---0-0-0-0-0-0---4-4-4-4-4-4----|
A|---0-0-0-0-0-0---2-2-2-2-2-2----|
D|---0-0-0-0-0-0------------------|


Guitar 1: distortion, very fast strumming
E|-------------------|
B|---14-----14-------|
G|----x--11--x-------|  Repeat
D|---11--x--11-------|
A|-------9-----------|
D|-------------------|

Intro  x 1
Verse  x 2
Chorus x 2
Verse  x 2
Chorus x 2
Loud Bit over and over.

Hope it worksfor you. I had to write this using ears and theres a lot of extra noise in 
but i couldnt tab it out. Please post any comments you may have. Have fun.
Related for Transmit Disrupt tab