Song name
# A B C D E F G H I J K L M N O P Q R S T U V W X Y Z

Hell Is For Heroes - Into The Blood tab

-------------------------------------------------------------------------------
			     INTO THE BLOOD - Hell Is For Heroes
-------------------------------------------------------------------------------
Tabbed by:The Bayliff
Email:kevinhifh@hotmail.co.uk

I was looking to see if I'd managed to get the new album right and was appalled to find 
tabs anywhere. So I took the liberty of doing it myself. Please send your comment to my 
because this is my first one and I'd love to get this right. Oh; and this IS right. I promise you.

Tuning:DADGBe

Main riff (Will)

e|10-7-0-------10-7-0--------10-7-0-------------------------------------------------------------|
B|------10-7-0--------10-7-0---------10-7-0-10-7-0-8-7-0-10-7-0-8-7-0-10-7-0-8-7-0-10-7-0-8-7-0-|
G|----------------------------------------------------------------------------------------------|
D|----------------------------------------------------------------------------------------------|
A|----------------------------------------------------------------------------------------------|
D|----------------------------------------------------------------------------------------------|

Chorus (Will)

e|----------------------------------|
B|----------------------------------|
G|-----------------------9-9-9-9999-|
D|-9-9-9-9999-0-0-0-0000-9-9-9-9999-|
A|-9-9-9-9999-0-0-0-0000-7-7-7-7777-|
D|-9-9-9-9999-0-0-0-0000------------|

Chorus (Tom)

e|-------------|
B|-7-----7-----|
G|---9-----9---|
D|-----9-----9-|
A|-------------|
D|-------------|x3

Break (Tom)

e|-------------------|
B|-7-----7---------9-|
G|---9-----9---7p9---|
D|-----9-----9-------|
A|-------------------|
D|-------------------|x8

Bridge (Will)

e|-------------------------------------------------|
B|-------------------------------------------------|
G|-------------------------------------------------|
D|999999999999999977777777777777772222222222222222-|
A|999999999999999977777777777777772222222222222222-|
D|999999999999999977777777777777772222222222222222-|

Bridge (Tom)

e|------------------------------------------------------------------|
B|------------------------------------------------------------------|
G|-4444444444444444999999999999999912121212121212121212121212121212-|
D|------------------------------------------------------------------|
A|-2222222222222222777777777777777710101010101010101010101010101010-|
D|------------------------------------------------------------------|

Middle 8 (Tom)

e|--------------------------------------|
B|--------------------------------------|
G|-444444444444222222222222999999999999-|
D|--------------------------------------|
A|--------------------------------------|
D|--------------------------------------|

Outro (Both guitars)

e|--------|
B|--------|
G|--------|
D|--------|
A|--------|
D|-999999-|


Arrangement:-
Main riff (Will) x4
Chorus (Will) & Chorus (Tom) x2
Break (Tom) x1
Main riff (Will) & Break (Tom) x1
Bridge (Will) & Bridge (Tom) x3
Chorus (Will) & Chorus (Tom) x3
Main riff (Will) x2 & Middle 8 (Tom) x3
Chorus (Will) both guitars x1
Chorus (Will) & Chorus (Tom) x2
Chorus (Will), Chorus (Tom) and Main riff (Will) to outro
Outro


| /  slide up
| \  slide down
| h  hammer-on
| p  pull-off
| ~  vibrato
| +  harmonic
| x  Mute note
Tap to rate this tab
# A B C D E F G H I J K L M N O P Q R S T U V W X Y Z