Song name
# A B C D E F G H I J K L M N O P Q R S T U V W X Y Z

Hella - Women Of The 90s tab

-------------------------------------------------------------------------------
			     HELLA - WOMEN OF THE 90'S
-------------------------------------------------------------------------------
Tabbed by: NOLAN SULLIVAN 	
Email:  ittheverb@yahoo.com

Tuning: DGDGBe (LOW TO HIGH)

I dont think Spencer uses this tuning, but this how i figured it out.

I feel this is a fairly accurate transposure.
There aren't too many Hella tabs around and I've been jamming on this song for a while now
so i figured i put it up for all to play.
Hella is a rediculous band, Spencer Seim is an otherworldly axeman, and Zach Hill...
well we won't go there today.
Spencer uses unconventional tunings for just about every piece, and the guitar he uses
doesn't help the tab process. This is my interpretation of his work, not exactly what he plays.

This version could be either from The Devil Isn't Red cut, or the Acoustic EP
I first learned this from the Acoustic on an Acoustic fyi...
so here we go

INTRO consists of 2 riffs A and B

e|-------------------------------------------------------------------------------------------|
B|---------------------8^---------------------10^------------10^-----------------------------|
G|---xx-0-----------7^----------0----------9^-----0--------------9^-----last time B ends with|
D|---xx-0----5------------------0---7-------------0---7--------------------------------------|
A|---xx-0--7---77-5~------------0-8---88-7~-------0-8---88-7~----------------7/--------------|
E|A-----------------------x2--B----------0~----------------0~-------x2-----------------------|

Riff

e|----------------------------------------------------------------------------|
B|--------------------------------------------ends-like-----------------------|
G|------------------------------------------------------4---------------------|
D|---------------h5-----h5--------------------55555555--x---------------------|
A|---3/12-0--0h3----0h3----3/12-0-------------44444444--0---------------------|
E|--------------------------------xa-couple-----------------------------------|

for the Hammer Ons ^^^. pretty much tremelo pick the A and D strings, with your hands 
clicking those notes and also hitting the opens.

INTRO VAR (INSTEAD OF INTRO ORDER A - B, INTRO IS NOW B - A)

SAD WOMEN

e|---------------------------------------------------------------------------|
B|---------------------------------------------------------------------------|
G|------------------------------------12----------12-------------------------|
D|-------13----------13------------11----------11----------------------------|
A|----11-----------11-----------12-------x2--9-------x2----------------------|
E|-12------x2---11-----x2----------------------------------------------------|

CRAZY WOMEN

e|---------------------------------------------------------------------------|
B|---------------------------------------------------------------------------|
G|-/11--------15----15^-----15^-------11-------------------------------------|
D|--0---------x-x-x-x-x-x-x-x-x-x-x-x-x--------------------------------------|
A|-/11--------15151515151515151515151511-------------------------------------|
E|-/12-x4-----17p017p017p017p017p017p00--------------------------------------|

THIRSTY WOMEN (most unsure part of tab.. just really kinda jam around this part, 
listen to song for rhythm hit the open D a lot..)

e|---------------------------------------------------------------------------|
B|---------------------------------------------------------------------------|
G|----11---9---------9p0-----------------------------------------------------|
D|---------------------------------------------------------------------------|
A|-11--------13p11-----------------------------------------------------------|
E|-0-----0---0--0--0---------x-a-couple--------------------------------------|

2nd PART OF CRAZY WOMEN 
THIRSTY WOMEN
1st PART OF CRAZY WOMEN
then something like

e|---------------------------------------------------------------------------|
B|---------------------------------------------------------------------------|
G|--1414--1111-99-77~--------------------------------------------------------|
D|--x-x---x-x--xx-xx---------------------------------------------------------|
A|--1414--1111-99-77~--------------------------------------------------------|
E|---------------------------------------------------------------------------|

BADADADADADA (HE ALWAYS HAS THAT G SPINNIN, LISTEN TO SONG FOR RYHTHM,
probably most difficult part of song to nail. work around G to hit the other notes)

e|---------------------------------------------------------------------------|
B|-----1111-1111-111111------------------------------------------------------|
G|--0x000000000000x0000------------------------------------------------------|
D|---------------11----------------------------------------------------------|
A|-----------------12--------------------------------------------------------|
E|---------------------------------------------------------------------------|

2ND PART OF CRAZY WOMEN 
THEN
ENDING

e|---------------------------------------------------------------------------------------|
B|--15----15----15-----------------------------------------------------------------------|
G|-----15----15----15----15-----------15^-14-11----------12------12----------------------|
D|-----------------------x------------x---x--x--------11-------11-------13----13---------|
A|----------------------x15-----------15^-14-11----12------x2-9---x2--11----11-----------|
E|---------------------xx0---x2-or3---0---0--0---0-------------------12---11----11-------|
                                                 .

dead.
if you like 2 piece fun, make sure you check out my band ITtheverb
myspace.com/ittheverb

| /  slide up
| \  slide down
| h  hammer-on
| p  pull-off
| ~  vibrato
| +  harmonic
| x  Mute note
===============================================================================
Tap to rate this tab
# A B C D E F G H I J K L M N O P Q R S T U V W X Y Z