Song name
# A B C D E F G H I J K L M N O P Q R S T U V W X Y Z

Hella - Top Twenty Notes tab

Band: Hella
Song: Top Twenty Notes
Album: The Devil Isn't Red
Tabbed by: Henrik

Tuning: DGDFBe

This is the riffs used in the song. Listen to it to figure out when to play them.

These  mean "smack that * around the top frets with your right hand".

    t        t       t      t     t    t    t    t
|-------------------------------------------------|
|-------------------------------------------------|
|-------------------------------------------------|
|-------------------------------------------------|
|-------------------------------------------------|
|-h12p0----h12p0---h12p0--h12p0-h12p0h12p0h12p0h12p0-|


tap high notes with right hand and low notes with the left. "stroke" the b string along 
with the left hand pull-off
Oh, and sometimes the tap sequence before the 3p0 is four times.. I think. Just listen 
to the song.
|---------------------------------------------------------------------|
|----------------0----------------------0----------------------0------|
|----3----3----3p0----------3----3----3p0----------3----3----3p0------|
|-12---12---12--------x2--9----9----9--------x2--7----7----7------x2--|
|---------------------------------------------------------------------|
|--12---12---12------------9----9----9------------7----7----7---------|


|------------------------------------------------------------------------------------------|
|--------------2---------4---------6-------------------2---------4---------6---------------|
|----3----3---------3---------3---------3----3----3---------3---------3---------3----------|
|-12---12---12---12---12---12---12---12---12---12---12---12---12---12---12---12---12---12--|
|------------------------------------------------------------------------------------------|
|--12---12---12---12---12---12---12---12---12---12---12---12---12---12---12---12---12---12-|


|-----------------|
|-6----5----3-----|
|-5----4----4-----|
|--------------0--|
|-----------------|
|-----------------|

All p.muted. Listen to song to get the feel and "exact" amount of notes.
|----------------------------------|----------|
|--------220-------440-------660---|----------|
|---00330-----00330-----00330------|-3--------|
|-00--------00--------00-----------|-2--------|
|----------------------------------|----2--3--|
|----------------------------------|----2--3--|

|---------------------------------------------------------------------------------------|
|----------4-----------4-----------4-----------4--------4---------4---------4---------4-|
|----3-----------3-----------3-----------3---------3---------3---------3---------3------|
|-12----12----12----12----12----12----12----12---9----9----9----9----7----7----7----7---|
|---------------------------------------------------------------------------------------|
|--12----12----12----12----12----12----12----12---9----9----9----9----7----7----7----7--|


|----------------------------------------------------------------------------------------|
|----------4-----------4-----------4-----------4----4-------------------4----------------|
|----3-----------3-----------3-----------3---------------3----2----3---------3----2----3-|
|-12----12----12----12----12----12----12----12----9----9----9----9----7----7----7----7---|
|----------------------------------------------------------------------------------------|
|--12----12----12----12----12----12----12----12----9----9----9----9----7----7----7----7--|


ending
|------------------------------------------|
|----6-----6-----5-----5-----4-----4-----3-|
|------------------------------------------|
|-12----12----12----12----12----12----12---|
|------------------------------------------|
|--12----12----12----12----12----12----12--|
Tap to rate this tab
 
# A B C D E F G H I J K L M N O P Q R S T U V W X Y Z