Song name
# A B C D E F G H I J K L M N O P Q R S T U V W X Y Z

Hella - Self Checkout tab

Band: Hella
Song: Self Checkout
Album: Tripper

Tab by: Henrik Iversen

Tuning: Standard

note: not correct amount of open E's here. Listen to song.
|--------------------------------------------------------------------|
|--------------------------------------------------------------------|
|---------------------------------------------------------------9/11-|
|-2---------\--------------------------------------------------------|
|-2---------\-------------5/7-6------------/9-9/12-11----------------|
|-0---------\-0-0-0-0-0-0-0-0-0-0-0-0-0-0-0-0-0--0--0-0-0-0-0-0-7/-9-|

|----------------------------------------------------------------------------|
|-------------------------------------77777777-------------------------------|
|-7-------9------13/---9-7--5-4--4/5----------99997777-----------------------|
|-----------------------------------------------------10101010----------2----|
|-5-------7------11/------------------------------------------99997777--2----|
|-0-0-0-0-0-0-0-0-0----7-5--3-2--2/3--5555555555555555-5-5-5-555555555--0----|

|-----------------------------------------------------------|
|-----------------------------------------------------------|
|-------1717-1717--1717-1717--1616-1616--1616-1616----------|
|-9-5---1414-1414--1414-1414--1414-1414--1414-1414---9-5-10-|
|-9-5---1515-1515--1515-1515--1414-1414--1414-1414---9-5-10-|
|-7-3----0-0--0-0---0-0--0-0---0-0--0-0---0-0--0-0---7-3--8-|

|------------------------------------------------------------------------|
|------------------------------------------------------------------------|
|----------------------------------------------2020-18--1717171717171717-|
|-1818-2020-2121-1818-2020-2121-1818-2020-2121-1818-18--1414141414141414-|
|-1919-1919-1919-1919-1919-1919-1818-1818-1818-1818-18--1515151515151515-|
|--0-0--0-0--0-0--0-0--0-0--0-0--0-0--0-0--0-0--0-0--0---0-0-0-0-0-0-0-0-|


This sould cover all the riffage in this song. Good luck!
Tap to rate this tab
# A B C D E F G H I J K L M N O P Q R S T U V W X Y Z