Song name
# A B C D E F G H I J K L M N O P Q R S T U V W X Y Z

Hellacopters - Ferrytale tab

e|-----------------------------------| 
B|-----------------------------------|
G|-2-2--0--5-5-5-5--0-x3--5-5-0-2----| 
D|-2-2--0--5-5-5-5--0-----5-5-0-2----| x2
A|-----------------------------------|
E|-----------------------------------|

And after that its the verse that goes like this

e|-----------------------------------| 
B|-----------------------------------|
G|-2-2--0-5-x3-5-0-2-----------------|
D|-2-2--0-5----5-0-2-----------------| x5 
A|-----------------------------------|
E|-----------------------------------|

Thats all i got so far, my first tab btw :P
Tap to rate this tab
# A B C D E F G H I J K L M N O P Q R S T U V W X Y Z