Song name
# A B C D E F G H I J K L M N O P Q R S T U V W X Y Z

Hellacopters - Hurtin Time tab

Band: The Hellacopters
Song: Hurtin' Time
Album: High Visibility (Track 12)
Tuning: standard (eadgbe)
questions to: al_katzone@web.de

---------------------------------------------------------------| x2
---------------------------------------------------------------|
------------99----66666-44-99-1010-----------------------------|
---66666-44-99-99-66666-44-99-1010-----------------------------|
---66666-44-77-99-44444-44-77--9-9-----------------------------|
---44444-44----77----------------------------------------------|

---------------------------------------------------------------|
---------------------------------------------------------------|
---8--9--8--9--8--9--6666--------------------------------------|
---8--9--8--9--8--9--6666-----22-44----------------------------|
---6--7--6--7--6--7--4444/2h0-22-44----------------------------|
------------------------------00-22----------------------------|

---------------------------------------------------------------|
---------------------------------------------------------------|
---8-888--9-999--8-888--9-999--8-888--9-999--6666--------------|
---8-888--9-999--8-888--9-999--8-888--9-999--6666-----22-44----|
---6-666--7-777--6-666--7-777--6-666--7-777--4444/2h0-22-44----|
------------------------------------------------------00-22----|

---------------------------------------------------------------| x2
---------------------------------------------------------------|
------------99----66666-44-99-1010-----------------------------|
---66666-44-99-99-66666-44-99-1010-----------------------------|
---66666-44-77-99-44444-44-77--9-9-----------------------------|
---44444-44----77----------------------------------------------|

---------------------------------------------------------------|
---------------------------------------------------------------|
---8-888--9-999--8-888--9-999--8-888--9-999--6666--------------|
---8-888--9-999--8-888--9-999--8-888--9-999--6666-----22-44----|
---6-666--7-777--6-666--7-777--6-666--7-777--4444/2h0-22-44----|
------------------------------------------------------00-22----|

---------------------------------------------------------------| x2
---------------------------------------------------------------|
------------99----66666-44-99-1010-----------------------------|
---66666-44-99-99-66666-44-99-1010-----------------------------|
---66666-44-77-99-44444-44-77--9-9-----------------------------|
---44444-44----77----------------------------------------------|

---------------------------------------------------------------|
---------------------------------------------------------------|
-------99----6~--99-1010---------------------------------------|
---6~--99-99-6~--99-1010---------------------------------------|
---6~--77-99-4~--77--9-9---------------------------------------|
---4~-----77---------------------------------------------------|

---------------------------------------------------------------|
---------------------------------------------------------------|
------------99----66666-44-99-1010-----------------------------|
---66666-44-99-99-66666-44-99-1010-----------------------------|
---66666-44-77-99-44444-44-77--9-9-----------------------------|
---44444-44----77----------------------------------------------|

---------------------|--------------------|--------------------|
----7-----7------7---|--6------6------6---|--------------------|
--------8-----8----8-|------6------6----6-|-----5-----5----6-4-|
------8-----8--------|----6------6--------|--6-----6-------6-4-|
---6-----6------6----|-4------4-----4-----|----6-----6--6--4-2-|
---------------------|--------------------|-4-----4------------|
+
---------------------------------------------------------------|
---------------------------------------------------------------|
---8-------------------6-----------------------------------6-4-|
---8-------------------6--------------------6--------------6-4-|
---6-------------------4--------------------6--------------4-2-|
--------------------------------------------4------------------|
SOLO!!!
play this under it
---------------------------------------------------------------|
---------------------------------------------------------------|
---8--------6-----------------4------6-------------------------|
---8-(x16)--6-(x16)--6--------4-(x8)-6-(x8)--------------------|
---6--------4--------6-(x16)--2------4-------------------------|
---------------------4-----------------------------------------|

---------------------------------------------------------------| x4
---------------------------------------------------------------|
------------99----66666-44-99-1010-----------------------------|
---66666-44-99-99-66666-44-99-1010-----------------------------|
---66666-44-77-99-44444-44-77--9-9-----------------------------|
---44444-44----77----------------------------------------------|

---------------------------------------------------------------|
---------------------------------------------------------------|
---8-888--9-999--8-888--9-999--8-888--9-999--6666--------------|
---8-888--9-999--8-888--9-999--8-888--9-999--6666-----22-44----|
---6-666--7-777--6-666--7-777--6-666--7-777--4444/2h0-22-44----|
------------------------------------------------------00-22----|

---------------------------------------------------------------| x4
---------------------------------------------------------------|
------------99----66666-44-99-1010-----------------------------|
---66666-44-99-99-66666-44-99-1010------------------------6~~--|
---66666-44-77-99-44444-44-77--9-9----after the last one--6~~--|
---44444-44----77-----------------------------------------4~~--|

That's it! Pretty easy to play!
Sorry for the solos, they were to stressfull to tab^^
Cheers & Beers from Germany!

PS: There will be more tabs for this album!
    And if you want me to tab other Hellacopters Songs, just ask me!
Tap to rate this tab
# A B C D E F G H I J K L M N O P Q R S T U V W X Y Z