Song name
# A B C D E F G H I J K L M N O P Q R S T U V W X Y Z

Hellacopters - By The Grace Of God tab

Hellacopters - By the grace of god
Tabbed by Steven Harris

JUST THE INTRO 
this way you can use all 4 of your fingers and
with ease enjoy

e |--------11------------------------|
b |----12----12----------------------|
g |-/13--13----13--------------------|
d |----------------14-14p13----------|
a |-------------------------14-11----|
e |----------------------------------|

e |--------11------------------------|
b |----12----12----------------------|
g |-/13--13----13--------------------|
d |----------------14-14p13----------|
a |-------------------------14-11----|
e |----------------------------------|
Tap to rate this tab
 
# A B C D E F G H I J K L M N O P Q R S T U V W X Y Z