Song name
# A B C D E F G H I J K L M N O P Q R S T U V W X Y Z

Hellacopters - A Heart Without Home tab

The Hellacopters
A Heart Without Home

great riff this
e|--------------------------------------------------------|
b|--------------------------------------------------------|
g|-----------------7--7---------------------7~------------|
d|-9---------------7--7--9------------7-8-9-------9--9p7--|
a|-9-------7-8-9---------7------7-8-9----------------9p7--|
e|-7------------------------------------------------------|


e|--------------------------------------------------------|
b|--------------------------------------------------------|
g|-----------------7--7-----------------------------------|
d|-9---------------7--7--9------9-8-7-------9-----7-------|
a|-9-------7-8-9---------7------------9-8-7-9-----7-------|
e|-7------------------------------------------------------|


e|--------------------------------------------------------|
b|--------------------------------------------------------|
g|-----------------7--7---------------------7~------------|
d|-9---------------7--7--9------------7-8-9-------9--9p7--|
a|-9-------7-8-9---------7------7-8-9----------------9p7--|
e|-7------------------------------------------------------|


e|--------------------------------------------------------|
b|--------------------------------------------------------|
g|-----------------7--7-----------------------------------|
d|-9---------------7--7--9------9-8-7-------9-----7-------|
a|-9-------7-8-9---------7------------9-8-7-9-----7-------|
e|-7------------------------------------------------------|

sorry its only the intro but im sure youll get over it
tabbed by mr.mikeywp
Tap to rate this tab
# A B C D E F G H I J K L M N O P Q R S T U V W X Y Z