Guitaretab - guitar tabs
Song name
# A B C D E F G H I J K L M N O P Q R S T U V W X Y Z

Hellacopters - Im In The Band tab

Artist: Hellacopters
Song:   Im in the band
Tuning: D# G# F# A# d# (dropped )
Tabber: iOnas
Comment: This is what you get when you let a noobish guitarist to the work of pros.
	 It's my first tab, hope it does some good for someone. Enjoy!

intro:
	(Guitar I)
|-------------------------|
|-12----------------------|
|-11b--9-----9------------|
|---------7---------------|
|-------------------------|
|-------------------------|

	(Guitar II)
|----------------------------------|
|-------------9----10----9---10----|
|-------------9-----9----9----9----|
|-------------9-----9----9----9----|
|-------------7-----7----7----7----|
|----------------------------------|

Vers prt I:
|-----------------------------------|
|----9------10-------7------9-------|
|----9-------9-------7------9-------|
|----9-------9-------7------9-------|  * x2
|----7-------7-------5------7-------|
|-----------------------------------|


Vers prt II:
	(Guitar I)
|------0----------0---------0--------0----------|
|--------0----------0---------0--------0--------|
|-----------------------------------------------|
|---6----------4---------2----------------------|
|-4----------2---------0----------2-------------|
|-------------------------------0---------------|

|------0----------0-----------------------------|
|--------0----------0---------------------------|
|-----------------------------------------------|
|---6----------4------------2-4-2-4-2-4-2-------|
|-4----------2--------------0-0-0-0-0-0-0-------|
|-----------------------------------------------|


	(Guitar II)
|-----------------------------------------------|
|-----------------------------------------------|
|-----------------------------------------------|
|--6--------4-------2---------------------------|
|--4--------2-------0---------2-----------------|
|-----------------------------0-----------------|

|-----------------------------------------------|
|-----------------------------------------------|
|-----------------------------------------------|
|--4--------4---------------2-4-2-4-2-4-2-------|
|--6--------2---------------0-0-0-0-0-0-0-------|
|-----------------------------------------------|

Pre Chorus:
|------------------------------------------------|
|------------------------------------------------|
|---9-9----7-------9-9---------------------------|
|---9-9----7--7----9-9---------------------------|
|---7-7----5--7----7-7---------------------------|
|-------------5----------------------------------|


Chorus:
|------------------------------------------------|
|------------------------------*Guitar II--------|
|-------------------------9----------------------|
|---7--9--11------7---9---9----------9-9---------|
|---7--9--11------7---9---7---*9-/11-----11-9----|
|---5--7---9------5---7--------------------------|

[ Tab from: http://www.guitaretab.com/h/hellacopters/65764.html ]
|------------------------------------------------|
|-------------------------9----------------------|
|-------------------------9----------------------|
|---7--9--11------7---9---9----------------------|
|---7--9--11------7---9---7----------------------|
|---5--7---9------5---7--------------------------|


Bridge:
	(Guitar I)
|-----------------------------------------------|
|-----------------------------------------------|
|-----------------------------------------------|
|-5-------------7---------------2---------------|
|-5-------------7---------------2---------------|
|-3-------------5---------------0---------------|


Solo:
	(Guitar II)
a)
|-----------------------------------------------|
|-----9-----------------------------------------|
|-----------------------------------------------|
|--/9---9--7----6-------------------------------|
|------------10---7---7-------------------------|
|-----------------------10--7--10/12------------|

b)
|-----------------------------------------------|
|-----------------------------------------------|
|--16b--16b--16-13-----13-----------------------| * too lazy to figure this one out
|------------------16-----16--------------------|
|-----------------------------------------------|
|-----------------------------------------------|

c)
|-17b--17b--17b--17b-17-15-17-15-17-17b---------|
|-----------------------------------------------|
|-----------------------------------------------|
|-----------------------------------------------|
|-----------------------------------------------|
|-----------------------------------------------|


Solo Riff:
	(Guitar I)
|-----------------------------------------------|
|-----------------------------------------------|
|-7-7-------------------------------------------|
|-7-7------7------2-----------------------------|
|-5-5------5------2-----------------------------|
|----------5------0-----------------------------|

Solo:
	(Guitar II)
|----12--------------12--------------12---------------12-----------|
|-------15-12-----------15-12-----------15-12------------15-12-----|
|-14b-------------14b-------------14b--------------14b-------------|
|------------------------------------------------------------------|
|------------------------------------------------------------------|
|------------------------------------------------------------------|


-15-12-15-12--------15-12-15-12---------15-12-15-12-------15-12-15-12--------|
-------------15-12--------------15-12---------------15-12-------------15-12--|
-----------------------------------------------------------------------------|
-----------------------------------------------------------------------------|
-----------------------------------------------------------------------------|
-----------------------------------------------------------------------------|


---------------17b-17b--17-15-17-15------------------------------------------|
-15-/17-17--------------------------17~-17~-17~--15-17-15--------------------|
----------------------------------------------------------\14-12----/13------|
-----------------------------------------------------------------14----------|
-----------------------------------------------------------------------------|
-----------------------------------------------------------------------------|
* ending not accurate i guess :)
Related for Im In The Band tab