Song name
# A B C D E F G H I J K L M N O P Q R S T U V W X Y Z

Hellacopters - Riot On The Rocks tab

Help us improve GuitareTab! Take a short survey!
Author/Artist: The Hellacopters
Title: Riot On The Rocks
Album: Payin' The Dues
Transcribed by: Marc
Email: al_katzone@web.de


Intro & Verse Riff :
|---------------------------------|
|---------------------------------|
|---------------------------------|
|--9--9-----9-9-9-----------------|
|--7--7-----7-7-7---5-5---7-7-----|
|-------------------3-3---5-5-----|

Chorus Riff:
|----------------------|------------------------------|
|----------------------|------------------------------|
|----------------------|------------------------------|     3x
|--7------7------7-----|------------------------------|
|--5--7---5--7---5--7--|--9-9--9-9--9-9-9-9-9---------|
|-----5------5------5--|--7-7--7-7--7-7-7-7-7---------|

ending of chorus    1x
|------------------------|
|------------------------|
|------------------------|
|--9-9-9-9----7-7-7-7----|
|--7-7-7-7----5-5-5-5----|
|------------------------|


Interlude parts:

Under 2nd Chorus :
|----------|---------|---------------|
|----------|---------|---------------|
|----------|---------|---------------|
|--------7-|----9----|------10---7---|
|--7h9-9---|--7---9--|---9-----------|
|----------|---------|---------------|

Under 3rd Chorus :
|----------|-----------------|-------------|
|----------|-----------------|-------------|
|----------|-----------------|-------------|
|------7---|----9------10--9-|---------7---|
|--7h9---9-|--7---7h9--------|---7h9-9-----|
|----------|-----------------|-------------|
Related for Riot On The Rocks tab