Song name
# A B C D E F G H I J K L M N O P Q R S T U V W X Y Z

Hellacopters - Everythings On Tv tab

 This is my third tab. I tabbed the main part of the song. With that, you'll certainly 
able to do something correct and play almost all of the song. Sorry but I don't know the solo.

*Legend* : s=slide
           r=let it ring 2 seconds
           rs=rapid slide
           br=bend and release fast
INTRO
E|------------------------------------------------------------|
B|----------------------4-------------------------------------|
G|----4-------6-------4---4---------4-------6-----4s6-8-6-----|
D|--6---6---6-------6-------6-----6---6---6-----6---------9-8-|
A|7-------4-------6-----------6-7-------4---------------------|
e|--------------4----------------------------4----------------|

E|-------------------------------------------4-|r
B|----------------------4--------------------4-|r
G|----4-------6-------4---4--------4-------6-4-|r
D|--6---6---6-------6-------6----6---6---6---6-|r
A|7-------4-------6-----------6-7-------4----6-|r
e|--------------4----------------------------4-|r

At the same time that the first VERSE begin, you can play:
E|11--11-11-11-11-11-11-14-11------------------------|I know that in the song,
B|11--11-11-11-11-11-11-------14-11------------------|he don't really play
G|----------------------------------13-11------------|this but I think that it
D|----------------------------------------13-11-13---|br
Tap to rate this tab
# A B C D E F G H I J K L M N O P Q R S T U V W X Y Z