Song name
# A B C D E F G H I J K L M N O P Q R S T U V W X Y Z

Hellbastard - Death Camp tab

HELLBASTARD - DEATH CAMP
FROM A LOT OF THEIR RELEASES
AS DECIPHERED BY JAMES MAITLAND

http://www.hellbastard.co.uk/

Standard tuning, hoorah.


Riff A

E|-------------------------------------|
B|-------------------------------------|
G|-------------------------------------|
D|-------------------------------------|
A|---------2---1---2-2-2-2-2-2-2-2-2-2-|
E|-0---3-----------0-0-0-0-0-0-0-0-0-0-|

Pre-riff B (tremolo picked, I'm not counting)

E|-----------------------------------------|
B|-----------------------------------------|
G|-----------------------------------------|
D|-----------------------------------------|
A|-0-0-0-0-0-0-0-0-0-0-0-0-0-0-0-0-0-0-12\-|
E|-----------------------------------------|

Riff B (again, mostly tremolo picked)

E|-------------------------------------------------|
B|-------------------------------------------------|
G|-------------------------------------------------|
D|-------------------------3-----------------------|
A|-0-0-0-0-0-0-0-0-0-0-0-0-1-0-0-0-0-0-0-0-0-0-0-0-|
E|-------------------------------------------------|

E|-------------------------------------------------|
B|-------------------------------------------------|
G|-------------------------------------------------|
D|-5-----------------------3-----------------------|
A|-3-0-0-0-0-0-0-0-0-0-0-0-1-0-0-0-0-0-3---3---3---|
E|-------------------------------------1---1---1---|

Riff C

E|-------------------------------------------------|
B|-------------------------------------------------|
G|-------------------------------------------------|
D|-------------------------6-----------------------|
A|-3-3-3-3-3-3-3-3-3-3-3-3-4-3-3-3-3-3-3-3-3-3-3-3-|
E|-------------------------------------------------|

E|-------------------------------------------------|
B|-------------------------------------------------|
G|-------------------------------------------------|
D|-8-----------------------6-----------------------|
A|-6-3-3-3-3-3-3-3-3-3-3-3-4-3-3-3-3-3-5---5---5---|
E|-------------------------------------3---3---3---|

Structure is easy. Have fun.
Tap to rate this tab
# A B C D E F G H I J K L M N O P Q R S T U V W X Y Z