Hellbillies - Moerkemann tab

-------------------------------------------------------|
-------------------------------------------------------|
-------------------------------------------------------|
2--4-4---6---7--6---4--2-------------------------------|
------------------------------0--2b0---4--5--4--2---0--|
-------------------------------------7-----------------|

-------------------------------------------------------|
-------------------------------------------------------|
------------------------------------4--6--7---6--4--2--|
2--4-4---6---7--6---4---2------------------------------|
---------------------------0--2b-0---------------------|
-------------------------------------------------------|

Hope you enjoy my tab!/Haaper dere liker tab'en min!
Tap to rate this tab
 
# A B C D E F G H I J K L M N O P Q R S T U V W X Y Z