Song name
# A B C D E F G H I J K L M N O P Q R S T U V W X Y Z

Hellbillies - Den Finaste Eg Veit tab

Det finaste Eg Veit - Hellbillies

Capo: 3 

Intro:

     D                  A    Bm     Em          G        G  A        
e|---------0-2-2h0------0--------------------------------------|
B|-------3---------3------2---3----------3-3-----3---0-3-3--2--|
G|-----2-------------2------2----------0-----------0-----------|
D|---0------------------2-------------2------------------2-----|
A|----------------------------2--------------------------------|
E|----------------------------------0------------3-------------|



     D                      A      D
Dæ æ jaddi me rart koss det kan gå te.
G       A        D         A
Tenk at du går i lag med meg.
   D                      A       Bm
Og om det blæs kaldt æ eg varm og heit,
    Em        A        D
for du æ den finast eg veit.

  D                      A      D
I granskande skin frå ei gatelykt,
G      A   D    A
æ'kji alt like trygt.
   D                      A       D
Og spør du meg no, bli eg heilt i beit,
   Em      A         D
Koffår den finast eg veit?

        G                     D
Og  når dyna varmar kring oss båe to
A       D
i mørke natta,
       G                     D
ska eg kviske i øyra ditt og svara på
       Em       A         D
koffår du æ den finast eg veit.

       D         A     D
Kor eg henta alt motet frå
Em        A   D    A
Kan'kji eg forstå.
    D                A        D
Men ein ting veit eg klart og greit,
   Em       A         D
At du æ den finast eg veit.

        G                     D
Og  når dyna varmar kring oss båe to
A       D
i mørke natta,
       G                     D
ska eg kviske i øyra ditt og svara på
       Em       A         D
koffår du æ den finast eg veit.


(Mellomspill)

     Em                                        D
Nei, at eg skulde ha slik tur, det æ 'kji te å tru!
    Em                                              A   Asus4
Når alt va slutt, og eg skull gå, ved døra der stod du!


     D                      A      D
Dæ æ jaddi me rart koss det kan gå te.
G       A        D         A
Tenk at du går i lag med meg.
   D                      A       Bm
Og om det blæs kaldt æ eg varm og heit,
    Em        A        D
for du æ den finast eg veit.

        G                     D
Og  når dyna varmar kring oss båe to
A       D
i mørke natta,
       G                     D
ska eg kviske i øyra ditt og svara på
       Em       A         D
koffår du æ den finast eg veit.

        G                     D
Og  når dyna varmar kring oss båe to
A       D
i mørke natta,
       G                     D
ska eg kviske i øyra ditt og svara på
       Em       A         D
koffår du æ den finast eg veit.


     D                  A    Bm      D                 Em
e|---------0-2-2h0------0-------------------0-2-2h0--------------|
B|-------3---------3------2---3-----------3---------3-----0---3--|
G|-----2-------------2------2-----------2-------------2-0---0----|
D|---0------------------2-------------0--------------------------|
A|----------------------------2-------------------------2--------|
E|---------------------------------------------------------------|

     D                  A    Bm     Em          G        G  A        
  ---------0-2-2h0------0----------------------------------------|
  -------3---------3------2---3----------3-3-----3---0-3-3--2----|
  -----2-------------2------2----------0-----------0-------------|
  ---0------------------2-------------2------------------2-------|
  ----------------------------2----------------------------------|
  ----------------------------------0------------3---------------|


Fredrik F.
Tap to rate this tab
# A B C D E F G H I J K L M N O P Q R S T U V W X Y Z