Song name
# A B C D E F G H I J K L M N O P Q R S T U V W X Y Z

Hellbillies - Krasafaren Steinbu tab

Help us improve GuitareTab! Take a short survey!
-------------------------------------------------------------------------------
			     Krasafaren Steinbu - Hellbillies
-------------------------------------------------------------------------------
Tabbed by: Hans-Erik H
Email: hans_hasse@hotmail.com

Tuning: standard tuning

e|---------------------------------------------------------------12-|
B|-------------------------------------------------------------12---|
G|------------------------------------------------------------------|Repeat
D|-2~-0-2~-----0-2h-----2~-0-2~-----0-2h------2~-0-2-0--------------|
A|---------0-2h-------------- 0-2h--------------------2p0-----------|
E|--------------------------------------------------------3-0-------|



| /  slide up
| \  slide down
| h  hammer-on
| p  pull-off
| ~  vibrato
| +  harmonic
| x  Mute note
============================================================================
Related for Krasafaren Steinbu tab