Song name
# A B C D E F G H I J K L M N O P Q R S T U V W X Y Z

Hellbillies - Rta tab

Laget av Ronnie Øymoen, Arendal 30. juli 2006 ronnie.oymoen@femaonline.net
Basert på versjon av Thomas Kopreitan, 28.oktober 2001 t-kop@online.no

Artist: Hellbillies
Sang: Røta
Album: Urban Twang

Intro: D - G - D- A - G - D - G - D - Bm - A - D

Intro del 1:
D			    D
---------2--0------------------------2--0---2-0-0-------|
-----3/2------3------------------3/2------3-------3-3---|
2--2------------4-2-0-2-----2--2------------------------|
0--------0------------0-----0--------0--------------0---|
--------------------------------------------0-----------|
----------------3-------------------------------3-------|

Intro del 2:
			   Bm		 *
--------2--0---------------2--------2-0-----2-0---------|
----3/2------3-------------3----3-3-----3-------3-3-----|
--2------------4-2-0-2-----4--2-------------------------|
--------0------------0-----4------0---------------0-----|
---------------------------2----------------0-----------|
---------------3----------------------------------------|

D                        G         D
Har du ein draum som du ikkji kan nå,
D                A     G --> D
kan du vegen som føre derifrå
D                     G        D
har ein sang som gjer sjele di varm
Bm                       A    D
som når du kvile ved ein jentebarm..

A                 Bm        G
Då har du røta du ikkji må fløta
D               A   G
må kji lure deg sjøl
A                      Bm        G
det går ein veg mellom fortid og framtid
D                  A
ikkji heft deg med møl
    Bm       A          G     D
det renn ei elv gjennom ro og larm
   Bm          D     A       D
av hjarteslag, held sjele di varm
      G          A --> D
som å vakne ved jentebarm..

Intro del 2

D			G	   D
Eg har ein sang som set tanken min fri
D		A	G --> D
skarpe fargu i finstemt harmoni
D			G	 D
skjenk eit glas, eg ska ikkji bi sein
Bm			    A		D
skål for den sangen som kan lokke uss heim

A		   Bm		G
For eg har røta eg ikkji kan fløta
D		A    G
slutta lure meg sjøl
A			Bm	  G
det går ein veg mellom fortid og framtid
D		    A
ikkji heft meg med møl
    Bm	     A		G	D
det renn ei elv gjennom ro og larm
    Bm	     D        A        D
ein puls av liv, gjer sjele mi varm
	G	 A    D
som å vakne ved jentebarm

A		G		D
Ta denna sangen - her kjem ditt refreng
A		   G		   A
for gamle veni kan kji kjøpast for peng

Intro del 1 og 2 (stopp ved *)

A		   Bm		G
For eg har røta eg ikkji vil fløta
D		A   G
slutta lure meg sjøl
A			Bm	  G
det går ein veg mellom fortid og framtid
D		   A
ikkji heft meg med møl
    Bm	    A		G	D
det renn ei elv gjennom ro og larm
    Bm	    D	     A		D
eit tankespinn, gjer sjele mi varm
      G		A	Bm  A
som å kvile ved jentebarm
      G		A
som å kvile ved jentebarm

Intro del 1

--------2--0-----------------------------------|
----3/2------3-----------3---------------------|
--2------------4-2-0-2-------4-2-0-------------|
--------0------------0-------------4-2-0---0---|
-----------------------------------------4-----|
---------------3-------------------------------|

-----------------------------------------------|
-----------------------------------------------|
--4-2-0------------4-2-0-----------------------|
--------4-2-0------------4-2-0---0-------------|
--------------4----------------4---------------|
-----------------------------------------------|
Tap to rate this tab
 
# A B C D E F G H I J K L M N O P Q R S T U V W X Y Z