Song name
# A B C D E F G H I J K L M N O P Q R S T U V W X Y Z

Hellbillies - Den Finast Eg Veit tab

Help us improve GuitareTab! Take a short survey!
Hellbillies - Den Finast Eg Veit

Tabbet av Ronnie Øymoen 21.11.2006 ronnie.oymoen@femaonline.net
Introen er ikke helt riktig, men det går an å spille den slik...
Send gjerne kommentarer.

G må spilles slik:  320033

h=hammer on
p=pull off

Intro:

-----3-5-7-5-3-5-3-2-3----------3-5-7-5-2-3h5-5-5p3-5p3--|
---3--------------------------3--------------------------|
---0--------------------------0--------------------------|
---------------0--------------------------0--------------|
---------------------------------------------------------|
-3-------------------3------3----------------------------|

                            G        C        D     Dsus4
-----3-5-7-5-3-5-3-2-3----------3--------0--------2----3-|
---3------------------------3-----3--1-----1--3-----3--3-|
------------------------------0--------0--------2------2-|
---------------0------------------------------0--------0-|
-------------------------------------3-------------------|
-3-------------------3------3----------------------------|


     G                      D      G
Dæ æ jaddi me rart koss det kan gå te.
C       D        G       D
Tenk at du går i lag med meg.
   G                      D       G
Og om det blæs kalt, æ eg varm og heit,
    C        D         G
for du æ den finast eg veit.

  G                      D      G
I granskande skin frå ei gatelykt,
C      D   G    D
æ 'kji alt like trygt.
   G                     D       G
Og spør du meg no, bi eg heilt i beit:
C          D         G
Koffår den finast eg veit?

        C                     G
Men når dyna varmar kring oss båe to
D       G
i mørke natta,
       C                     G
ska eg kviske i øyra ditt og svara på
       C        D         G
koffår du æ den finast eg veit.

       G         D     G
Kor eg henta alt motet frå
C        D   G    D
Kan 'kji eg forstå.
    G                D        G
Men ein ting veit eg klart og greit:
   C        D         G
At du æ den finast eg veit.

     C                                         G
Nei, at eg skulde ha slik tur, det æ 'kji te å tru!
    C                                               D   Dsus4
Når alt va slutt, og eg skull gå, ved døra der stod du!
Related for Den Finast Eg Veit tab