Guitaretab - guitar tabs
Song name
# A B C D E F G H I J K L M N O P Q R S T U V W X Y Z

Helldorado - Dead River tab

I took the chords from Dag Vagle at some concert in Istanbul. He said that i could 
out the tabs by myself. So here are the chords from Dag and the tab from me. Enjoy!

INTRO AND CHORUS

standard tuning

e|-----------------------------------------------------|
B|-----------------------------------------------------|
G|-----------------------------------------------------|
D|--------------------2-------0---2---0----------------|
A|------------------------3----------------3---0-------|
E|---0---1---0---5-------------------------------------|

|-----------------------------------------------------|
|-----------------------------------------------------|
|-----------------------------------------------------|
|-----------------------------------------------------|
|-----------------------------------------------------|
|--2---3---2---0---2---5---3p2h3---2p0h2--------------|
|---------------------------------------------0-------|

--------------------------------------------|
--------------------------------------------|
--------------------------------------------|
--------------------------------------------|
--------------------------------------------|
---0---1---0---5--------------0---5---------|

Am
All along the river of misery and woe
Fm                     E           Fm
I`m ridin` through the darkness and I`m feelin` low
Am
All along the highway of trouble and strife
Fm                  E       Fm             E
The highway I have travelled most of my life
[ Tab from: http://www.guitaretab.com/h/helldorado/116221.html ]
              G
Where will it end ?
             Fm
This journey of trials
            G
Tell me my friend
Fm         Esus4 E
Where will it end ?
Am    C   D       E  Am B
Way over yonder I'll lay me down
    Fm          Esus4 E
And sleep forever sleep

(same chords here)
Boots of coal black leather with silver spurs so bright
I`m ridin` through the badlands in the dead of the night
Ridin` through the desert, ridin` through the sand
But will I ever reach the promised land ?

Where do they end ?
These days of depression
Tell me my friend
Where do they end ?

Way over yonder I will lay me down
And sleep forever sleep

SOLO:


---------------------------------------------------------------------------|
---------------------------------------------------------------------------|
---------------------------------------------------------------------------|
-------------------3--3--3--5--3--2--------------------------------------2-|
---------------------------------------2----0--2--3----2--h3--h5--3--5-----|
---0---1---s8--------------------------------------------------------------|

----------------------------------------------------------|
----------------------------------------------------------|
----------------------------------------------------------|
--------2--3--2--0--2---------2--3--2--0--2--6------------|
--0--3-------------------0--3-----------------------------|
----------------------------------------------------0--5--|

solo chords:
Fm-E-Fm-Am-Bb-Am-Bb-Esus4-E


One of these mornings dreary and cold
I`m going to the mountain where I can rest my soul
No longer will I suffer, no longer be a slave
My soul belongs to Heaven, my body to my grave

I`m going where
there ain`t no depression
And no more trials
I`m going there

Way over yonder I will lay me down
And sleep forever sleep
Related for Dead River tab
Advertisement will be closed in 10 seconds