Song name
# A B C D E F G H I J K L M N O P Q R S T U V W X Y Z

Hellfire - Constantine tab

Song: Constantine
Artist: Hellfire
Album: Warnings (2009)
Notes: Look out for Evan's lead part after the octaved riff in the bridge,
it may look complicated, but it's only a sixteenth note pedal point riff 
with accents on the downbeat.

You can listen to Hellfire at www.hellfire-metal.com


Intro: (0:00-0:48)

Guitar I: Evan Hare
    E E E E E E E E   E E E E E E E E   E E E E E E E E   E E E E E E E E x2
E|------------------|-----------------|-----------------|-----------------||
B|o-----------------|-----------------|-----------------|----------------o||
G|------------------|-----------------|-----------------|-----------------||
D|------------------|-----------------|-----------------|-----------------||
A|o-----------------|-----------------|-----------------|----------------o||
E|--7-0-0-7-0-0-5-5-|-7-0-0-7-0-0-7-5-|-3-0-0-3-0-0-5-3-|-2-0-0-2-0-0-2-0-||
 |                  |                 |                 |                 ||
 |                  |                 |                 |                 ||
Guitar II: Cory Tyson                 |                 |                 ||
 |  H+Q         E E | H+Q         E E | H+Q         E E | H+Q         Q   ||
E|------------------|-----------------|-----------------|-----------------||
B|o-----------------|-----------------|-----------------|----------------o||
G|------------------|-----------------|-----------------|-----------------||
D|--9-----------9-7-|-9-----------9-7-|-5-----------7-5-|-4-----------2---||
A|o-9-----------9-7-|-9-----------9-7-|-5-----------7-5-|-4-----------2--o||
E|--7-----------7-5-|-7-----------7-5-|-3-----------5-3-|-2-----------0---||


    E E E E E E E E   E E E E E E E E   E E E E E E E E   E E E E E E E E x2
E|------------------|-----------------|-----------------|-----------------||
B|o-----------------|-----------------|-----------------|----------------o||
G|------------------|-----------------|-----------------|-----------------||
D|------------------|-----------------|-----------------|-----------------||
A|o-----------------|-----------------|-----------------|----------------o||
E|--7-0-0-7-0-0-5-5-|-7-0-0-7-0-0-7-5-|-3-0-0-3-0-0-5-3-|-2-0-0-2-0-0-2-0-||


    E E E E E E E E   E E E E E E E E   E E E E E E E E   E E E E E E E E
E|------------------|-----------------|-----------------|-----------------|
B|------------------|-----------------|-----------------|-----------------|
G|------------------|-----------------|-----------------|-----------------|
D|------------------|-----------------|-----------------|-----------------|
A|------------------|-----------------|-----------------|-----------------|
E|--7-0-0-7-0-0-5-5-|-7-0-0-7-0-0-7-5-|-3-0-0-3-0-0-5-3-|-2-0-0-2-0-0-2-0-|
PM: . . . . . . . .   . . . . . . . .   . . . . . . . .   . . . . . . . .


    E E E E E E E E   E E E E E E E E   E E E E E E E E   E   '2, 3, 4!'
E|------------------|-----------------|-----------------|-----------------|
B|------------------|-----------------|-----------------|-----------------|
G|------------------|-----------------|-----------------|-----------------|
D|------------------|-----------------|-----------------|-----------------|
A|------------------|-----------------|-----------------|-----------------|
E|--7-0-0-7-0-0-5-5-|-7-0-0-7-0-0-7-5-|-3-0-0-3-0-0-5-3-|-2---------------|
PM: . . . . . . . .   . . . . . . . .   . . . . . . . .


    E E E E E E E E   E E E E E E E E   E E E E E E E E   E E E E E E E E
E|------------------|-----------------|-----------------|-----------------|
B|------------------|-----------------|-----------------|-----------------|
G|------------------|-----------------|-----------------|-----------------|
D|------------------|-----------------|-----------------|-------------7-8-|
A|--7-----5-----7-8-|-7-----5-----7-8-|-7-----5-----7-8-|-7-----5---------|
E|----0-0---0-0-----|---0-0---0-0-----|---0-0---0-0-----|---0-0---0-0-----|
PM:   . .   . .         . .   . .         . .   . .         . .   . .


    E E E E E E E E   E E E E E E E E   E E E E E E E E   E E E E E E E E
E|------------------|-----------------|-----------------|-----------------|
B|------------------|-----------------|-----------------|-----------------|
G|------------------|-----------------|-----------------|-----------------|
D|--7-----5-----7-8-|-7-----5-----7-8-|-7-----5-----7-8-|-7-----5---------|
A|------------------|-----------------|-----------------|-------------7-8-|
E|----0-0---0-0-----|---0-0---0-0-----|---0-0---0-0-----|---0-0---0-0-----|
PM:   . .   . .         . .   . .         . .   . .         . .   . .


    E E E E E E E E   E E E E E E E E   E E E E E E E E   E E E E E E E E 
E|------------------|-----------------|-----------------|-----------------|
B|------------------|-----------------|-----------------|-----------------|
G|------------------|-----------------|-----------------|-----------------|
D|------------------|-----------------|-----------------|-------------7-8-|
A|--7-----5-----7-8-|-7-----5-----7-8-|-7-----5-----7-8-|-7-----5---------|
E|----0-0---0-0-----|---0-0---0-0-----|---0-0---0-0-----|---0-0---0-0-----|
PM:   . .   . .         . .   . .         . .   . .         . .   . .


    E E E E E E E E   E E E E E E E E   E E E E E E E E   E E E E+H
E|------------------|-----------------|-----------------|-----------------|
B|------------------|-----------------|-----------------|-----------------|
G|------------------|-----------------|-----------------|-------9---------|
D|--7-----5-----7-8-|-7-----5-----7-8-|-7-----5-----7-8-|-7-----9---------|
A|------------------|-----------------|-----------------|-------7---------|
E|----0-0---0-0-----|---0-0---0-0-----|---0-0---0-0-----|---0-0-----------|
PM:   . .   . .         . .   . .         . .   . .         . . 




Verse 1: (0:48-1:07)

'I walk these streets...'
    E E E E E E E E   E E E E E E E E   E E E E E E E E   E E E E E E E E 
E|------------------|-----------------|-----------------|-----------------|
B|------------------|-----------------|-----------------|-----------------|
G|------------------|-----------------|-----------------|-----------------|
D|------------------|-----------------|-----------------|-----------------|
A|--7-----5-----7-8-|-7-----5-----7-8-|-7-----5-----7-8-|-7-----5-----7-8-|
E|----0-0---0-0-----|---0-0---0-0-----|---0-0---0-0-----|---0-0---0-0-----|
PM:   . .   . .         . .   . .         . .   . .         . .   . .


'Heal the weak...'
    E E E E E E E E   E E E E E E E E   E E E E E E E E   E E E E E E E E 
E|------------------|-----------------|-----------------|-----------------|
B|------------------|-----------------|-----------------|-----------------|
G|------------------|-----------------|-----------------|-----------------|
D|------------------|-----------------|-----------------|-----------------|
A|--7-----5-----7-8-|-7-----5-----7-8-|-7-----5-----7-8-|-7-----5-----7-8-|
E|----0-0---0-0-----|---0-0---0-0-----|---0-0---0-0-----|---0-0---0-0-----|
PM:   . .   . .         . .   . .         . .   . .         . .   . .


'Kill all evil...'
    E E E E E E E E   E E E E E E E E   E E E E E E E E   E E E E E E E E
E|------------------|-----------------|-----------------|-----------------|
B|------------------|-----------------|-----------------|-----------------|
G|------------------|-----------------|-----------------|-----------------|
D|--7-----5-----7-8-|-7-----5-----7-8-|-7-----5-----7-8-|-7-----5---------|
A|------------------|-----------------|-----------------|-------------7-8-|
E|----0-0---0-0-----|---0-0---0-0-----|---0-0---0-0-----|---0-0---0-0-----|
PM:   . .   . .         . .   . .         . .   . .         . .   . .


'I've been through Hell...'
    E E E E E E E E   E E E E E E E E   E E E E E E E E   E E E E+H
E|------------------|-----------------|-----------------|-----------------|
B|------------------|-----------------|-----------------|-----------------|
G|------------------|-----------------|-----------------|-------9---------|
D|--7-----5-----7-8-|-7-----5-----7-8-|-7-----5-----7-8-|-7-----9---------|
A|------------------|-----------------|-----------------|-------7---------|
E|----0-0---0-0-----|---0-0---0-0-----|---0-0---0-0-----|---0-0-----------|
PM:   . .   . .         . .   . .         . .   . .         . . 




Main Riff: (1:07-1:36)

    E E E E E E E E   E E E E E E E E   E E E E E E E E   E E E E E E E E x2
E|------------------|-----------------|-----------------|-----------------||
B|o-----------------|-----------------|-----------------|----------------o||
G|------------------|-----------------|-----------------|-----------------||
D|------------------|-----------------|-----------------|-----------------||
A|o-----------------|-----------------|-----------------|----------------o||
E|--7-0-0-7-0-0-5-5-|-7-0-0-7-0-0-7-5-|-3-0-0-3-0-0-5-3-|-2-0-0-2-0-0-2-0-||


    E E E E E E E E   E E E E E E E E   E E E E E E E E   E E E E E E E E
E|------------------|-----------------|-----------------|-----------------|
B|------------------|-----------------|-----------------|-----------------|
G|------------------|-----------------|-----------------|-----------------|
D|------------------|-----------------|-----------------|-----------------|
A|--4-----4-----4-2-|-4-----4-----4-2-|-------------2---|-----------------|
E|----2-2---2-2-----|---2-2---2-2-----|-5-2-2-5-2-2---5-|-4-2-2-4-2-2-4-2-|


    E E E E E E E E   E E E E E E E E   E E E E E E E E   E E E E E E E E
E|------------------|-----------------|-----------------|-----------------|
B|------------------|-----------------|-----------------|-----------------|
G|------------------|-----------------|-119---11--------|-----------------|
D|------------------|-----------------|-----12--12119-11|-12119---9-------|
A|--4-----4-----4-2-|-4-----4-----4-2-|-----------------|-------12---12109|
E|----2-2---2-2-----|---2-2---2-2-----|-----------------|-----------------|


   E E E E E E E E   E E E E E E E E   E E E E E E E E   E E E E E E E E 
E|------------------|-----------------|-----------------|-----------------|
B|------------------|-----------------|-----------------|-----------------|
G|------------------|-----------------|-----------------|-----------------|
D|------------------|-----------------|-----------------|-----------------|
A|--7-----5-----7-8-|-7-----5-----7-8-|-7-----5-----7-8-|-7-----5-----7-8-|
E|----0-0---0-0-----|---0-0---0-0-----|---0-0---0-0-----|---0-0---0-0-----|
PM:   . .   . .         . .   . .         . .   . .         . .   . .


    E E E E E E E E   E E E E E E E E   E E E E E E E E   E E E E+H
E|------------------|-----------------|-----------------|-----------------|
B|------------------|-----------------|-----------------|-----------------|
G|------------------|-----------------|-----------------|-------9---------|
D|--7-----5-----7-8-|-7-----5-----7-8-|-7-----5-----7-8-|-7-----9---------|
A|------------------|-----------------|-----------------|-------7---------|
E|----0-0---0-0-----|---0-0---0-0-----|---0-0---0-0-----|---0-0-----------|
PM:   . .   . .         . .   . .         . .   . .         . .




Verse 2: (1:36-1:55)

'The streets at night...'
    E E E E E E E E   E E E E E E E E   E E E E E E E E   E E E E E E E E 
E|------------------|-----------------|-----------------|-----------------|
B|------------------|-----------------|-----------------|-----------------|
G|------------------|-----------------|-----------------|-----------------|
D|------------------|-----------------|-----------------|-----------------|
A|--7-----5-----7-8-|-7-----5-----7-8-|-7-----5-----7-8-|-7-----5-----7-8-|
E|----0-0---0-0-----|---0-0---0-0-----|---0-0---0-0-----|---0-0---0-0-----|
PM:   . .   . .         . .   . .         . .   . .         . .   . .


'There is more here...'
    E E E E E E E E   E E E E E E E E   E E E E E E E E   E E E E E E E E 
E|------------------|-----------------|-----------------|-----------------|
B|------------------|-----------------|-----------------|-----------------|
G|------------------|-----------------|-----------------|-----------------|
D|------------------|-----------------|-----------------|-----------------|
A|--7-----5-----7-8-|-7-----5-----7-8-|-7-----5-----7-8-|-7-----5-----7-8-|
E|----0-0---0-0-----|---0-0---0-0-----|---0-0---0-0-----|---0-0---0-0-----|
PM:   . .   . .         . .   . .         . .   . .         . .   . .


'Now I'm cursed to try...'
    E E E E E E E E   E E E E E E E E   E E E E E E E E   E E E E E E E E
E|------------------|-----------------|-----------------|-----------------|
B|------------------|-----------------|-----------------|-----------------|
G|------------------|-----------------|-----------------|-----------------|
D|--7-----5-----7-8-|-7-----5-----7-8-|-7-----5-----7-8-|-7-----5---------|
A|------------------|-----------------|-----------------|-------------7-8-|
E|----0-0---0-0-----|---0-0---0-0-----|---0-0---0-0-----|---0-0---0-0-----|
PM:   . .   . .         . .   . .         . .   . .         . .   . .


'Hell rose above...'
    E E E E E E E E   E E E E E E E E   E E E E E E E E   E E E E+H
E|------------------|-----------------|-----------------|-----------------|
B|------------------|-----------------|-----------------|-----------------|
G|------------------|-----------------|-----------------|-------9---------|
D|--7-----5-----7-8-|-7-----5-----7-8-|-7-----5-----7-8-|-7-----9---------|
A|------------------|-----------------|-----------------|-------7---------|
E|----0-0---0-0-----|---0-0---0-0-----|---0-0---0-0-----|---0-0-----------|
PM:   . .   . .         . .   . .         . .   . .         . . 




Main Riff: (1:55-2:14)

    E E E E E E E E   E E E E E E E E   E E E E E E E E   E E E E E E E E x2
E|------------------|-----------------|-----------------|-----------------||
B|o-----------------|-----------------|-----------------|----------------o||
G|------------------|-----------------|-----------------|-----------------||
D|------------------|-----------------|-----------------|-----------------||
A|o-----------------|-----------------|-----------------|----------------o||
E|--7-0-0-7-0-0-5-5-|-7-0-0-7-0-0-7-5-|-3-0-0-3-0-0-5-3-|-2-0-0-2-0-0-2-0-||


    E E E E E E E E   E E E E E E E E   E E E E E E E E   E E E E E E E E
E|------------------|-----------------|-----------------|-----------------|
B|------------------|-----------------|-----------------|-----------------|
G|------------------|-----------------|-----------------|-----------------|
D|------------------|-----------------|-----------------|-----------------|
A|--4-----4-----4-2-|-4-----4-----4-2-|-------------2---|-----------------|
E|----2-2---2-2-----|---2-2---2-2-----|-5-2-2-5-2-2---5-|-4-2-2-4-2-2-4-2-|


    E E E E E E E E   E E E E E E E E   E E E E E E E E   E
E|------------------|-----------------|-----------------|-----------------|
B|------------------|-----------------|-----------------|-----------------|
G|------------------|-----------------|-----------------|-----------------|
D|------------------|-----------------|-----------------|-----------------|
A|--4-----4-----4-2-|-4-----4-----4-2-|-------------2---|-----------------|
E|----2-2---2-2-----|---2-2---2-2-----|-5-2-2-5-2-2---5-|-4---------------|




Bridge: (2:14-3:35)

Guitar I: Evan Hare
    H+Q         E E   H+Q         E E   H+Q         E E   H+Q         E E  x2
E|------------------|-----------------|-----------------|------------------||
B|o-----------------|-----------------|-----------------|-----------------o||
G|-13-----------1311|-13----------1311|-9-----------119-|-8-----------9-11-||
D|------------------|-----------------|-----------------|------------------||
A|o-----------------|-----------------|-----------------|-----------------o||
E|------------------|-----------------|-----------------|------------------||
 |                  |                 |                 |                  ||
 |                  |                 |                 |                  ||
Guitar II: Cory Tyson                 |                 |                  ||
 |  H+Q         E E | H+Q         E E | H+Q         E E | H+Q         E E  ||
E|------------------|-----------------|-----------------|------------------||
B|o-----------------|-----------------|-----------------|-----------------o||
G|------------------|-----------------|-----------------|------------------||
D|------------------|-----------------|-----------------|------------------||
A|o11-----------119-|-11----------119-|-7-----------9-7-|-6-----------7-9-o||
E|------------------|-----------------|-----------------|------------------||


    H+Q         E E   H+Q         E E   H+Q         E E   H+Q         E E  x2
E|------------------|-----------------|-----------------|------------------||
B|o14-----------1412|-14----------1412|-10----------1210|-9-----------1012o||
G|------------------|-----------------|-----------------|------------------||
D|------------------|-----------------|-----------------|------------------||
A|o-----------------|-----------------|-----------------|-----------------o||
E|------------------|-----------------|-----------------|------------------||
 |                  |                 |                 |                  ||
 |                  |                 |                 |                  ||
 |                  |                 |                 |                  ||
 |  H+Q         E E | H+Q         E E | H+Q         E E | H+Q         E E  ||
E|------------------|-----------------|-----------------|------------------||
B|o-----------------|-----------------|-----------------|-----------------o||
G|------------------|-----------------|-----------------|------------------||
D|-11-----------119-|-11----------119-|-7-----------9-7-|-6-----------7-9--||
A|o-----------------|-----------------|-----------------|-----------------o||
E|------------------|-----------------|-----------------|------------------||


    H+Q         E E   H+Q         E E   H+Q         E E   H+Q         E E  x2
E|------------------|-----------------|-----------------|------------------||
B|o-----------------|-----------------|-----------------|-----------------o||
G|-13-----------1311|-13----------1311|-9-----------119-|-8-----------9-11-||
D|------------------|-----------------|-----------------|------------------||
A|o-----------------|-----------------|-----------------|-----------------o||
E|------------------|-----------------|-----------------|------------------||
 |                  |                 |                 |                  ||
 |                  |                 |                 |                  ||
 |                  |                 |                 |                  ||
 |  H+Q         E E | H+Q         E E | H+Q         E E | H+Q         E E  ||
E|------------------|-----------------|-----------------|------------------||
B|o-----------------|-----------------|-----------------|-----------------o||
G|------------------|-----------------|-----------------|------------------||
D|------------------|-----------------|-----------------|------------------||
A|o11-----------119-|-11----------119-|-7-----------9-7-|-6-----------7-9-o||
E|------------------|-----------------|-----------------|------------------||


    H+Q         E E   H+Q         E E   H+Q         E E   W                x2
E|------------------|-----------------|-----------------|------------------||
B|o14-----------1412|-14----------1412|-10----------1210|-9---------------o||
G|------------------|-----------------|-----------------|------------------||
D|------------------|-----------------|-----------------|------------------||
A|o-----------------|-----------------|-----------------|-----------------o||
E|------------------|-----------------|-----------------|------------------||
 |                  |                 |                 |                  ||
 |                  |                 |                 |                  ||
 |                  |                 |                 |                  ||
 |  H+Q         E E | H+Q         E E | H+Q         E E | W                ||
E|------------------|-----------------|-----------------|------------------||
B|o-----------------|-----------------|-----------------|-----------------o||
G|------------------|-----------------|-----------------|------------------||
D|-11-----------119-|-11----------119-|-7-----------9-7-|-6----------------||
A|o-----------------|-----------------|-----------------|-----------------o||
E|------------------|-----------------|-----------------|------------------||


   SSSSSSSSSSSSE  SS SSSSSSSSSSSSE  SS SSSSSSSSSSSSE  SS SSSSSSSSSSSSQ     x4
E|-85557555855510-55|8555755585553--55|85557555855510-55|7333533373332-----||
B|o-----------------|-----------------|-----------------|-----------------o||
G|------------------|-----------------|-----------------|------------------||
D|------------------|-----------------|-----------------|------------------||
A|o-----------------|-----------------|-----------------|-----------------o||
E|------------------|-----------------|-----------------|------------------||
 |                  |                 |                 |                  ||
 |                  |                 |                 |                  ||
 |                  |                 |                 |                  ||
 |  E E E E E E Q   | E E E E E E Q   | E E E E E E Q   | E E E E E E Q    ||
E|------------------|-----------------|-----------------|------------------||
B|o-----------------|-----------------|-----------------|-----------------o||
G|--------------7---|-----------------|-------------7---|------------------||
D|--------------7---|-------------5---|-------------7---|-------------4----||
A|o-0-0-0-0-0-0-5---|-0-0-0-0-0-0-5---|-0-0-0-0-0-0-5---|-------------4---o||
E|------------------|-------------3---|-----------------|-3-3-3-3-3-3-2----||
PM: . . . . . .       . . . . . .       . . . . . .       . . . . . . 


   SSSSSSSSSSSSE     SSSSSSSSSSSSE     SSSSSSSSH *Let Ring
E|-7333533373332----|7333533373332----|733353337--------|------------------|
B|------------------|-----------------|-----------------|------------------|
G|------------------|-----------------|-----------------|------------------|
D|------------------|-----------------|-----------------|------------------|
A|------------------|-----------------|-----------------|------------------|
E|------------------|-----------------|-----------------|------------------|
 |                  |                 |                 |                  |
 |                  |                 |                 |                  |
 |                  |                 |                 |                  |
 |  E E E E E E Q   | E E E E E E Q   | E E E E H       |                  |
E|------------------|-----------------|-----------------|------------------|
B|------------------|-----------------|-----------------|------------------|
G|------------------|-----------------|-----------------|------------------|
D|--------------4---|-------------4---|---------9-------|------------------|
A|--------------4---|-------------4---|---------9-------|------------------|
E|--3-3-3-3-3-3-2---|-3-3-3-3-3-3-2---|-3-3-3-3-7-------|------------------|
PM: . . . . . .       . . . . . .       . . . .  



---------------------Wait 8 measures for keyboards-------------------------



    H+Q         E E   H+Q         E E   H+Q         E E   H+Q         Q
E|------------------|-----------------|-----------------|-----------------|
B|------------------|-----------------|-----------------|-----------------|
G|------------------|-----------------|-----------------|-----------------|
D|--9-----------9-7-|-9-----------9-7-|-5-----------7-5-|-4-----------2---|
A|--9-----------9-7-|-9-----------9-7-|-5-----------7-5-|-4-----------2---|
E|--7-----------7-5-|-7-----------7-5-|-3-----------5-3-|-2-----------0---|


    H+Q         E E   H+Q         E E   H+Q         E E   W
E|------------------|-----------------|-----------------|-----------------|
B|------------------|-----------------|-----------------|-----------------|
G|------------------|-----------------|-----------------|-----------------|
D|--9-----------9-7-|-9-----------9-7-|-5-----------7-5-|-4---------------|
A|--9-----------9-7-|-9-----------9-7-|-5-----------7-5-|-4---------------|
E|--7-----------7-5-|-7-----------7-5-|-3-----------5-3-|-2---------------|




Main Riff: (3:35-4:04)

    E E E E E E E E   E E E E E E E E   E E E E E E E E   E E E E E E E E x2
E|------------------|-----------------|-----------------|-----------------||
B|o-----------------|-----------------|-----------------|----------------o||
G|------------------|-----------------|-----------------|-----------------||
D|------------------|-----------------|-----------------|-----------------||
A|o-----------------|-----------------|-----------------|----------------o||
E|--7-0-0-7-0-0-5-5-|-7-0-0-7-0-0-7-5-|-3-0-0-3-0-0-5-3-|-2-0-0-2-0-0-2-0-||


    E E E E E E E E   E E E E E E E E   E E E E E E E E   E E E E E E E E
E|------------------|-----------------|-----------------|-----------------|
B|------------------|-----------------|-----------------|-----------------|
G|------------------|-----------------|-----------------|-----------------|
D|------------------|-----------------|-----------------|-----------------|
A|------------------|-----------------|-----------------|-----------------|
E|--7-0-0-7-0-0-5-5-|-7-0-0-7-0-0-7-5-|-3-0-0-3-0-0-5-3-|-2-0-0-2-0-0-2-0-|
PM: . . . . . . . .   . . . . . . . .   . . . . . . . .   . . . . . . . .


    E E E E E E E E   E E E E E E E E   E E E E E E E E   E
E|------------------|-----------------|-----------------|-----------------|
B|------------------|-----------------|-----------------|-----------------|
G|------------------|-----------------|-----------------|-----------------|
D|------------------|-----------------|-----------------|-----------------|
A|------------------|-----------------|-----------------|-----------------|
E|--7-0-0-7-0-0-5-5-|-7-0-0-7-0-0-7-5-|-3-0-0-3-0-0-5-3-|-2---------------|
PM: . . . . . . . .   . . . . . . . .   . . . . . . . .   .


    E E E E E E E E   E E E E E E E E   E E E E E E E E   E E E E E E E E 
E|------------------|-----------------|-----------------|-----------------|
B|------------------|-----------------|-----------------|-----------------|
G|------------------|-----------------|-----------------|-----------------|
D|------------------|-----------------|-----------------|-------------7-8-|
A|--7-----5-----7-8-|-7-----5-----7-8-|-7-----5-----7-8-|-7-----5---------|
E|----0-0---0-0-----|---0-0---0-0-----|---0-0---0-0-----|---0-0---0-0-----|
PM:   . .   . .         . .   . .         . .   . .         . .   . .


    E E E E E E E E   E E E E E E E E   E E E E E E E E   E E E E+H
E|------------------|-----------------|-----------------|-----------------|
B|------------------|-----------------|-----------------|-----------------|
G|------------------|-----------------|-----------------|-------9---------|
D|--7-----5-----7-8-|-7-----5-----7-8-|-7-----5-----7-8-|-7-----9---------|
A|------------------|-----------------|-----------------|-------7---------|
E|----0-0---0-0-----|---0-0---0-0-----|---0-0---0-0-----|---0-0-----------|
PM:   . .   . .         . .   . .         . .   . .         . . 




Verse 3: (4:04-4:23)

'It comes again...'
    E E E E E E E E   E E E E E E E E   E E E E E E E E   E E E E E E E E 
E|------------------|-----------------|-----------------|-----------------|
B|------------------|-----------------|-----------------|-----------------|
G|------------------|-----------------|-----------------|-----------------|
D|------------------|-----------------|-----------------|-----------------|
A|--7-----5-----7-8-|-7-----5-----7-8-|-7-----5-----7-8-|-7-----5-----7-8-|
E|----0-0---0-0-----|---0-0---0-0-----|---0-0---0-0-----|---0-0---0-0-----|
PM:   . .   . .         . .   . .         . .   . .         . .   . .


'He's dressed to kill...'
    E E E E E E E E   E E E E E E E E   E E E E E E E E   E E E E E E E E 
E|------------------|-----------------|-----------------|-----------------|
B|------------------|-----------------|-----------------|-----------------|
G|------------------|-----------------|-----------------|-----------------|
D|------------------|-----------------|-----------------|-----------------|
A|--7-----5-----7-8-|-7-----5-----7-8-|-7-----5-----7-8-|-7-----5-----7-8-|
E|----0-0---0-0-----|---0-0---0-0-----|---0-0---0-0-----|---0-0---0-0-----|
PM:   . .   . .         . .   . .         . .   . .         . .   . .


'An angel's wings...'
    E E E E E E E E   E E E E E E E E   E E E E E E E E   E E E E E E E E
E|------------------|-----------------|-----------------|-----------------|
B|------------------|-----------------|-----------------|-----------------|
G|------------------|-----------------|-----------------|-----------------|
D|--7-----5-----7-8-|-7-----5-----7-8-|-7-----5-----7-8-|-7-----5---------|
A|------------------|-----------------|-----------------|-------------7-8-|
E|----0-0---0-0-----|---0-0---0-0-----|---0-0---0-0-----|---0-0---0-0-----|
PM:   . .   . .         . .   . .         . .   . .         . .   . .


'Eternal pain...'
    E E E E E E E E   E E E E E E E E   E E E E E E E E   E E E E+H
E|------------------|-----------------|-----------------|-----------------|
B|------------------|-----------------|-----------------|-----------------|
G|------------------|-----------------|-----------------|-------9---------|
D|--7-----5-----7-8-|-7-----5-----7-8-|-7-----5-----7-8-|-7-----9---------|
A|------------------|-----------------|-----------------|-------7---------|
E|----0-0---0-0-----|---0-0---0-0-----|---0-0---0-0-----|---0-0-----------|
PM:   . .   . .         . .   . .         . .   . .         . . 




Outro: (4:23-4:45)

    E E E E E E E E   E E E E E E E E   E E E E E E E E   E E E E E E E E x2
E|------------------|-----------------|-----------------|-----------------||
B|o-----------------|-----------------|-----------------|----------------o||
G|------------------|-----------------|-----------------|-----------------||
D|------------------|-----------------|-----------------|-----------------||
A|o-----------------|-----------------|-----------------|----------------o||
E|--7-0-0-7-0-0-5-5-|-7-0-0-7-0-0-7-5-|-3-0-0-3-0-0-5-3-|-2-0-0-2-0-0-2-0-||


    E E E E E E E E   E E E E E E E E   E E E E E E E E   E E E E E E E E
E|------------------|-----------------|-----------------|-----------------|
B|------------------|-----------------|-----------------|-----------------|
G|------------------|-----------------|-----------------|-----------------|
D|------------------|-----------------|-----------------|-----------------|
A|------------------|-----------------|-----------------|-----------------|
E|--7-0-0-7-0-0-5-5-|-7-0-0-7-0-0-7-5-|-3-0-0-3-0-0-5-3-|-2-0-0-2-0-0-2-0-|
PM: . . . . . . . .   . . . . . . . .   . . . . . . . .   . . . . . . . .


    E E E E E E E E   E E E E E E E E   E E E E E E E E   E E E E E E E E
E|------------------|-----------------|-----------------|-----------------|
B|o-----------------|-----------------|-----------------|----------------o|
G|------------------|-----------------|-----------------|-----------------|
D|------------------|-----------------|-----------------|-----------------|
A|o-----------------|-----------------|-----------------|----------------o|
E|--7-0-0-7-0-0-5-5-|-7-0-0-7-0-0-7-5-|-3-0-0-3-0-0-5-3-|-2-0-0-2-0-0-2-0-|
 |                  |                 |                 |                 |
 |                  |                 |                 |                 |
 |  H+Q         E E | H+Q         E E | H+Q         E E | H+Q         Q   |
E|------------------|-----------------|-----------------|-----------------|
B|o-----------------|-----------------|-----------------|----------------o|
G|------------------|-----------------|-----------------|-----------------|
D|--9-----------9-7-|-9-----------9-7-|-5-----------7-5-|-4-----------2---|
A|o-9-----------9-7-|-9-----------9-7-|-5-----------7-5-|-4-----------2--o|
E|--7-----------7-5-|-7-----------7-5-|-3-----------5-3-|-2-----------0---|


   Ending
E|------------------|
B|o-----------------|
G|------------------|
D|--2---------------|
A|o-2---------------|
E|--0---------------|
Tap to rate this tab
 
# A B C D E F G H I J K L M N O P Q R S T U V W X Y Z