Song name
# A B C D E F G H I J K L M N O P Q R S T U V W X Y Z

Hellfueled - Girls Girls tab

Hello

This is the tab of the girls girls intro from the new hellfueled album. The tunning is:

C
G
C
F
A
D

So its like you tune down the guitars one step exept for the E string that you tune down
two steps for a drop-d kind of effect.

If you have any questions mail me at larsbrundin20@hotmail.com
Don't add me to your msn messenger please, just mail.


C|---------0---0---------0---0---------3--5------|
G|--5--0-----------5--0----------5--7------------|
C|-----------------------------------------------|
F|-----------------------------------------------|
A|-----------------------------------------------|
D|-----------------------------------------------|

C|---------0---0---------0---0-------------------|
G|--5--0-----------5--0---------3----------------|
C|------------------------------5----------------|
F|------------------------------5----------------|
A|-----------------------------------------------|
D|-----------------------------------------------|

C|---------0---0---------0---0---------3--5------|
G|--5--0-----------5--0----------5--7------------|
C|-----------------------------------------------|
F|-----------------------------------------------|
A|-----------------------------------------------|
D|-----------------------------------------------|

C|---------0---0-----3----4----------------------|
G|--5--0----------5----6-------------------------|
C|-----------------------------------------------|
F|-----------------------------------------------|
A|-----------------------------------------------|
D|-----------------------------------------------|


C|---------0---0---------0---0---------3--5------|
G|--5--0-----------5--0----------5--7------------|
C|-----------------------------------------------|
F|-----------------------------------------------|
A|-----------------------------------------------|
D|-----------------------------------------------|

C|---------0---0---------0---0-------------------|
G|--5--0-----------5--0---------3----------------|
C|------------------------------5----------------|
F|------------------------------5----------------|
A|-----------------------------------------------|
D|-----------------------------------------------|

C|---------0---0---------0---0---------3--5------|
G|--5--0-----------5--0----------5--7------------|
C|-----------------------------------------------|
F|-----------------------------------------------|
A|-----------------------------------------------|
D|-----------------------------------------------|

C|---------0---0-----3----4----3-----1---0-------|
G|--5--0----------5----6----5-----3------0-------|
C|-----------------------------------------------|
F|-----------------------------------------------|
A|-----------------------------------------------|
D|-----------------------------------------------|
Tap to rate this tab
# A B C D E F G H I J K L M N O P Q R S T U V W X Y Z