Song name
# A B C D E F G H I J K L M N O P Q R S T U V W X Y Z

Hello Helga - Intro tab

                                    Intro    -   Hello Helga
--------------------------------------------------------------------------------------------

E---------------------------------------------------------------------------------------------|
H---------------------------------------------------------------------------------------------|
G---------------------------------------------------------------------------------------------|
D------------------------------------------------------------------------------6-----6---6-6--|
A--8888888888888888--8888888888888888--8888888888888888--8888888888888888----6-----6-----6-6--|
E--6666666666666666--7777777777777777--6666666666666666--7777777777777777--4-----4-----4------|

E-------------------------------------------------------------|
H-------------------------------------------------------------|
G-------------------------------------------------------------|       2X
D------4-----4--4-4-----6-----6---6-6-----4-----4--4-4--------|
A----4-----4----4-4---6-----6-----6-6---4-----4----4-4--------|
E--2-----2-----2----4-----4-----4-----2-----2-----2-----------|

E-------------------------------------------------------------------------------------------|
H-------------------------------------------------------------------------------------------|
G-------------------------------------------------------------------------------------------|
D-------------------------------------------------------------------------88888888-6666666--|
A--8888888888888888--8888888888888888--8888888888888888--8888888888888888-88888888-6666666--|
E--6666666666666666--7777777777777777--6666666666666666--7777777777777777-66666666-4444444--|

E--------------------------------------------------------------------------|
H--------------------------------------------------------------------------|
G--------------------------------------------------------------------------|
D--44444444-88888888-66666666-44444444-------------------------------------|
A--44444444-88888888-66666666-44444444-8888888888888888--8888888888888888--|
E--22222222-66666666-44444444-22222222-6666666666666666--7777777777777777--|

E-------------------------------------|
H-------------------------------------|
G-------------------------------------|
D-------------------------------------|
A--8888888888888888--8888888888888888-|
E--6666666666666666--7777777777777777-|


website: www.myspace.com/hellohelga
Tap to rate this tab
# A B C D E F G H I J K L M N O P Q R S T U V W X Y Z