Guitaretab - guitar tabs
Song name
# A B C D E F G H I J K L M N O P Q R S T U V W X Y Z

Hellogoodbye - Bonnie Taylor Shakedown tab

Key board synth intro
e|--------------------------------|
B|--------------------------------|
G|-----12-----12-----12-----12----|
D|---12--12-12--12-12--12-12--12--|
A|--10-----9----------------------|
E|----------------12-----8--------|

guitar intro
e|--------------------------|
B|--------------------------|
G|---------7-7--9-9-9--5-5--|
D|--5-5-5--7-7--9-9-9--5-5--|
A|--5-5-5--5-5--7-7-7--3-3--|
E|--3-3-3-------------------|

verse
e|-----------------------------|
B|-----------------------------|
G|--12-12-12--7-7--9-9-9--5-5--|
D|--12-12-12--7-7--9-9-9--5-5--|
A|--10-10-10--5-5--7-7-7--3-3--|
E|-----------------------------|

chorus
e|-----------|--------------------------------------|
B|-----------|--------------------------------------|
G|--5/7-7-7--|-----------7-7-7-7--9-9-9-9--5-5-5-5--|
D|--5/7-7-7--|--5-5-5-5--7-7-7-7--9-9-9-9--5-5-5-5--|
A|--3/5-5-5--|--5-5-5-5--5-5-5-5--7-7-7-7--3-3-3-3--|
E|-----------|--3-3-3-3-----------------------------|
guitar intro
e|--------------------------|
B|--------------------------|
G|---------7-7--9-9-9--5-5--|
D|--5-5-5--7-7--9-9-9--5-5--|
A|--5-5-5--5-5--7-7-7--3-3--|
E|--3-3-3-------------------|

verse
e|-----------------------------|
B|-----------------------------|
G|--12-12-12--7-7--9-9-9--5-5--|
D|--12-12-12--7-7--9-9-9--5-5--|
A|--10-10-10--5-5--7-7-7--3-3--|
E|-----------------------------|
[ Tab from: http://www.guitaretab.com/h/hellogoodbye/55984.html ]
chorus
e|-----------|--------------------------------------|
B|-----------|--------------------------------------|
G|--5/7-7-7--|-----------7-7-7-7--9-9-9-9--5-5-5-5--|
D|--5/7-7-7--|--5-5-5-5--7-7-7-7--9-9-9-9--5-5-5-5--|
A|--3/5-5-5--|--5-5-5-5--5-5-5-5--7-7-7-7--3-3-3-3--|
E|-----------|--3-3-3-3-----------------------------|



guitar intro
e|--------------------------|
B|--------------------------|
G|---------7-7--9-9-9--5-5--|
D|--5-5-5--7-7--9-9-9--5-5--|
A|--5-5-5--5-5--7-7-7--3-3--|
E|--3-3-3-------------------|

bridge
e|--------------------------|     |-------------------------------------|
B|--------------------------|     |-------------------------------------|
G|--5-----7-----9-----7-----|  x2 |-----------7-7-7-79-9-9-9--5-5-5-5--|  x2, 2nd time slide down
D|--5--x8-7--x8-9--x8-7-x8--|     |--5-5-5-5--7-7-7-79-9-9-9--5-5-5-5--|
A|--3-----5-----7-----5-----|     |--5-5-5-5--5-5-5-57-7-7-7--3-3-3-3--|
E|--------------------------|     |--3-3-3-3----------------------------|
                                  pm.....................................
guitar intro
e|--------------------------|
B|--------------------------|
G|---------7-7--9-9-9--5-5--|
D|--5-5-5--7-7--9-9-9--5-5--|
A|--5-5-5--5-5--7-7-7--3-3--|
E|--3-3-3-------------------|
chorus
e|-----------|--------------------------------------|
B|-----------|--------------------------------------|
G|--5/7-7-7--|-----------7-7-7-7--9-9-9-9--5-5-5-5--|
D|--5/7-7-7--|--5-5-5-5--7-7-7-7--9-9-9-9--5-5-5-5--|
A|--3/5-5-5--|--5-5-5-5--5-5-5-5--7-7-7-7--3-3-3-3--|
E|-----------|--3-3-3-3-----------------------------|

intro
verse
chorus
intro
verse
chorus
intro
bridge
intro
chorus

Related for Bonnie Taylor Shakedown tab