Guitaretab - guitar tabs
Song name
# A B C D E F G H I J K L M N O P Q R S T U V W X Y Z

Hellogoodbye - Oh It Is Love tab

-----------------------------------------------------------------------------------------
Oh It Is Love - Hellogoodbye

jtitular@gmail.com

Tuning:Standard (E A D G B e)

Ok, so heres what I have found to be a pretty accurate version of what forest plays I 
up the lyrics to somewhat sync up w/ the timing, but you should be able to figure it 
umm, all you youtube-peoples, this is the tab I use

   Oh it is    love from the first time I set my eyes upon
   Yours   Thinking oh, is it love
e|-333333------555555--------777777-------888888--------------------|
B|-333333------555555--------777777-------888888--------------------|
G|-444444------555555--------777777-------888888--------------------|
D|-555555------777777--------999999-------10101010------------------|
A|-xxxxxx------xxxxxx--------xxxxxx-------xxxxxx--------------------|
E|-xxxxxx------xxxxxx--------xxxxxx-------xxxxxx--------------------|

e|-------------/10--9---8----------------------------------------|
B|-------3-5-3-/10--9---8---10p8------------------8-10/11\10-8---|
G|-----4-------/11--10--9------------5-7-5------9--------------9-|
D|-3/5---------/12--11--10---------7-------7/10------------------|
A|--------------x---x---x----------------------------------------|
E|--------------x---x---x----------------------------------------|


Oh dear,         its been hardly a moment and you are already
missed           There is still a bit of your skin that Ive yet to have kissed
                 Oh say please do not go but you know oh you know that I
must
                 Oh say I love you so you know oh you know you can
e|-3--x--3------/-10-9-8--8--x--x-xx--x-------8--8----|
B|-3--x--3-5p3--/-10-9-8--8--x--x-xx--x-------8--8----|
G|-4--x--4------/-11-10-9--9--x--x-xx--x-------8-8----|
D|-5--x--5------/-12-11-10-10-x-x-xx--x------10-10----|
A|-x--x--x------/-x-----x--x--x--x-xx--x-------x-x----|
E|-x--x--x------/-x-----x--x--x--x-xx--x-------x--x----|


   Trust    well be        holding hands once again
            All our         broken plans I will mend
           And I will       kiss you soft so you know
e|------10-10-10-10-10-----8-8-8-8-8---|
B|------1010-10-10-10------8-8-8-8-8---|
G|------1111-11-11-11------9-9-9-9-9---|
D|--12--1212-12-12-12--10--10-10-10-10-10--|
A|------x-x-x-x-x------x-x-x-x-x---|
E|------x-x-x-x-x------x-x-x-x-x---|


Oh it is    love from the first time I pressed my hand into yours
      Thinking oh, is it love
e|-333333------555555--------777777-------888888--------------------|
B|-333333------555555--------777777-------888888--------------------|
G|-444444------555555--------777777-------888888--------------------|
D|-555555------777777--------999999-------10101010------------------|
A|-xxxxxx------xxxxxx--------xxxxxx-------xxxxxx--------------------|
E|-xxxxxx------xxxxxx--------xxxxxx-------xxxxxx--------------------|


e|-------------/10--9---8----------------------------------------|
B|-------3-5-3-/10--9---8---10p8------------------8-10/11\10-8---|
G|-----4-------/11--10--9------------5-7-5------9--------------9-|
D|-3/5---------/12--11--10---------7-------7/10------------------|
A|--------------x---x---x----------------------------------------|
E|--------------x---x---x----------------------------------------|

Oh dear,         its been hardly three days yet Im longing to feel your embrace
                 There are several days until I can see your sweet face
                 Oh say wouldnt it be nice to be older and married with me
                 Oh say wouldnt you like to know right now that well
[ Tab from: http://www.guitaretab.com/h/hellogoodbye/69035.html ]
e|--------------/-10-9-8--8--x--x-xx--x-----------8--8----|
B|--------3-5-3-/-10-9-8--8--x--x-xx--x-----------8--8----|
G|------4-------/-11-10-9--9--x--x-xx--x-----------8-8----|
D|----5---------/-12-11-10-10-x-x-xx--x-----------10-10---|
A|--------------/-x--x--x--x--x--x-xx--x-----------x-x----|
E|--------------/-x--x--x--x--x--x-xx--x-----------x--x----|

    Be      one day         holding hands in the
    End     All our         broken plans will have
    Been    And I will      kiss you soft so you know
e|------10-10-10-10-10-----8-8-8-8-8---|
B|------1010-10-10-10------8-8-8-8-8---|
G|------1111-11-11-11------9-9-9-9-9---|
D|--12--1212-12-12-12--10--10-10-10-10-10--|
A|------x-x-x-x-x------x-x-x-x-x---|
E|------x-x-x-x-x------x-x-x-x-x---|

Oh it is    love from the first time I pressed my hand into yours
      Thinking oh, is it love
e|-333333------555555--------777777-------888888--------------------|
B|-333333------555555--------777777-------888888--------------------|
G|-444444------555555--------777777-------888888--------------------|
D|-555555------777777--------999999-------10101010------------------|
A|-xxxxxx------xxxxxx--------xxxxxx-------xxxxxx--------------------|
E|-xxxxxx------xxxxxx--------xxxxxx-------xxxxxx--------------------|


   Your heart may yearn for love that is more near
   So when Im    gone these words will be    here
e|-10-------------8---------11----------------10----|
B|-10-------------8---------11----------------10----|
G|-11-------------9---------12----------------11----|
D|-12-------------10--------13----------------12---|
A|-x--------------x---------x-----------------x-----|
E|-x--------------x---------x-----------------x-----|

To ease every              fear
And dry out all your       tears
And make it very           clear

e|---------------------------------------------------|
B|----12-------12-------12----12-------12-------12---|
G|-------12-------12-------------12-------12---------|
D|-13-------13-------13----12-------12-------12-----|
A|---------------------------------------------------|
E|---------------------------------------------------|

I kiss you and I
E|---------|
B|-1212~--|
G|-1212~--|
D|-1313~--|
A|---------|
E|---------|

   Know    it is love        from the first         time I pressed my lips against
   Yours   thinking oh       is it love
e|-------3-----------------5----------------------7---------------8----|
B|-----3-----------------5----------------------7---------------8------|
G|---4-----------------5----------------------7---------------8--------|
D|-5-----------------7----------------------9--------------10----------|
A|---------------------------------------------------------------------|
E|---------------------------------------------------------------------|


   Yours   thinking oh       is it love
e|-------3-----------------5------------------7---8--8-----8-----------|
B|-----3-----------------5------------------7-----8--8-----8-----------|
G|---4-----------------5------------------7-------8--8-----8-----------|
D|-5-----------------7------------------9---------10-10----10----------|
A|------------------------------------------------x--x-----x-----------|
E|------------------------------------------------x--x-----x-----------|

Oh it is    love from the first time I pressed my hand into yours
      Thinking oh, is it love
e|-333333------555555--------777777-------888888--------------------|
B|-333333------555555--------777777-------888888--------------------|
G|-444444------555555--------777777-------888888--------------------|
D|-555555------777777--------999999-------10101010------------------|
A|-xxxxxx------xxxxxx--------xxxxxx-------xxxxxx--------------------|
E|-xxxxxx------xxxxxx--------xxxxxx-------xxxxxx--------------------|


| /  slide up
| \  slide down
| h  hammer-on
| p  pull-off
| ~  vibrato
| +  harmonic
| x  Mute note
===============================================================================
Related for Oh It Is Love tab