Song name
# A B C D E F G H I J K L M N O P Q R S T U V W X Y Z

Hellogoodbye - Touchdown Turnaround tab

[This tab is from the album version: Zombies! Aliens! Vampires! Dinosaurs!]
I also did the demo/older version at the bottom.

Verse
[guitar 1]
e|------------------|
B|------------------|
G|-7----------------|
D|-7--7--9--5--x4---|
A|-5--7--9--5-------|
E|----5--7--3-------|

[guitar 2]
e|------------------------14-12-14-12-14-12--17-17-17-14-12-17---|
B|-12-10-12-10-12-10----10-----------------15--------------------|
G|-------------------11------------------------------------------|
D|---------------------------------------------------------------|
A|---------------------------------------------------------------|
E|---------------------------------------------------------------|

e|-14-12-14-12-14-12---------|
B|-------------------15------|
G|---------------------------|
D|---------------------------|
A|---------------------------|
E|---------------------------|

Pre-Chorus
e|------------------|
B|------------------|
G|------------------|
D|-4-5-7---x4-------|
A|-4-5-7------------|
E|-2-3-5------------|

[guitar 2 for pre-chorus]
e|-19-17-19-17-19-17-19-17--|
B|--------------------------|
G|--------------------------|
D|--------------------------|
A|--------------------------|
E|--------------------------|

Chorus
[guitar 1]
e|------------------|
B|------------------|
G|-7----------------|
D|-7--7--9--5--x4---|
A|-5--7--9--5-------|
E|----5--7--3-------|

[guitar 2]
e|----------------7/5-----|
B|-7/5\7/5\7-7/5----------|
G|------------------------|
D|------------------------|
A|------------------------|
E|------------------------|

Post-Chorus
[guitar 1]
e|------------------------14-12-14-12-14-12--17-17-17-14-12-17---|
B|-12-10-12-10-12-10----10-----------------15--------------------|
G|-------------------11------------------------------------------|
D|---------------------------------------------------------------|
A|---------------------------------------------------------------|
E|---------------------------------------------------------------|

e|-14-12-14-12-14-12---------|
B|-------------------15------|
G|---------------------------|
D|---------------------------|
A|---------------------------|
E|---------------------------|


Verse/Chorus (For the older version)
[guitar 1] = the same (except half a step down)

[guitar 2]
eb|----------------7-5--|
Bb|--7-5---5-7-5-7------|
Gb|------7--------------|
Db|---------------------|
Ab|---------------------|
Eb|---------------------|
Tap to rate this tab
# A B C D E F G H I J K L M N O P Q R S T U V W X Y Z