Song name
# A B C D E F G H I J K L M N O P Q R S T U V W X Y Z

Hellogoodbye - Call N Return tab

Verse
[guitar 1]
e|----------------------------------------------|
B|----------------------------------------------|
G|-2----2-------7-7-7/9--2----2-------7-7--7----|
D|-2--2---4-2-4-7-7-7/9--2--2---4-2-4-7-7--7----|
A|-0------------5-5-5/7--0------------5-5--5----|
E|----------------------------------------------|

[guitar 2]
e|--7-9-7-9-5---7-9-7-9-5---|
B|--------------------------|
G|--------------------------|
D|--------------------------|
A|--------------------------|
E|--------------------------|

Pre-Chorus
e|--------------------|
B|--------------------|
G|--9-9--9/11----7----|
D|--9-9--9/11-x3-7----|
A|--7-7--7/9-----5----|
E|--------------------|

Chorus
e|-------------------------|
B|-------------------------|
G|--2-7-----2-2-7-----2----|
D|--2-7-2-4---2-7-2-4---4--|
A|--0-5-------0-5----------|
E|-------------------------|
Tap to rate this tab
# A B C D E F G H I J K L M N O P Q R S T U V W X Y Z