Song name
# A B C D E F G H I J K L M N O P Q R S T U V W X Y Z

Hellogoodbye - Dear Jamie Sincerely Me tab

Song: Dear Jamie Sincerely Me
Artist: Hellogoodbye
Tuning: EADGBe
-------------------------------------------------
The Ones that are in parentheses listen out for those.
BUT I DON'T HAVE THE STRUMMING IN HERE HAVE MOST OF THE PIANO PARTS

The Ones that are in parentheses listen out for those.
Intro
e|---------5---------5---------5---------5-------|
B|-------8---8-----8---8-----8---8-----8---8-----|
G|---------------------------------(5)-----------|
D|-----------------------(5)---------------------|
A|-------------(5)-------------------------------|
E|----(5)----------------------------------------|


   0:32
e-----------------|
B------0-------0--|
G----3-------3----|  i KNOW THIS PART IS WRONG BUT I PUT IT ON HERE ANYWAYS
D--0-------0------|  THIS IS MY FIRST TAB SO DON'T BE SO MEAN IF THERE BAD
A-----------------|
E-----------------|


e|---10--9---------------------------------------|
B|-------------10--10-10--8-7-8--7--10----7------|
G|--------------------------------------9---7----|
D|-----------------------------------------------|
A|-----------------------------------------------|
E|-----------------------------------------------|

The Ones that are in parentheses listen out for those.
e|----10-9----9-----------------------------------------------9----9----9-10----|
b|---------10---10-----------------------10----9-10h-------10---10---10---------|
g|------------------11---11-11-11-9---9-----9--------9-(9)----------------------|
d|---------------------------------(9)------------------------------------------|
a|--------------------(9)-------------------------------------------------------|
e|-(9)--------------------------------------------------------------------------|


AAND ENJOY FIGURE OUT WHERE YOU PLAY FOR EACH
Tap to rate this tab
# A B C D E F G H I J K L M N O P Q R S T U V W X Y Z