Song name
# A B C D E F G H I J K L M N O P Q R S T U V W X Y Z

Helloween - Warrior tab

-------------------------------------------------------------------------------
     Warrior - Helloween
-------------------------------------------------------------------------------
Tabbed by:Tume
Email:tume95@windowslive.com

READ ME!!!This is little bit more than just intro :)

Intro & Outro
e|---------------------------------|
B|---------------------------------|
G|---------------------------------|
D|-9-----------9\7--9-----------9-9|  2x
A|-7777-777-7777\5--7777-777-7777-7|
E|---------------------------------|
  pm-----------    pm-----------
e|---------------------------------|
B|---------------------------------|
G|---------------------------------|
D|-55-5--77-7--1211979-7-----------|
A|-33-3--55-5--10 9757-5-----------|
E|---------------------------------|
 pm--  pm--

Verse a
e|---------------------------------|
B|---------------------------------|
G|---------------------------------|
D|-9-----------9-9-----------9-----|  \
A|-7777-777-7777-7777-777-7777-----|   \
E|---------------------------------|    \
                                         \ 2x
e|---------------------------------|     /
B|---------------------------------|    /
G|---------------------------------|   /
D|-55-5--77-7--1211979-7-----------|
A|-33-3--55-5--10 9757-5-----------|
E|---------------------------------|
 pm--  pm--
Verse b
e|---------------------------------|
B|---------------------------------|
G|---------------------------------|
D|-----5-----7-----5-----7---------|
A|-00003-00005-00003-00005---------| 2x
E|---------------------------------|
Bridge
e|---------------------------------|
B|---------------------------------|
G|---------------------------------|
D|-7-----------------7-------------|
A|-5-555-555-555-555-5-------------|
E|---------------------------------|
   pm---------------
That Bridge Before Solo
e|--------------------------------------|---|
B|--------------------------------------|---|
G|--------------------------------------|---|2x
D|-9-9/1112-14-12-11-9-9----9/1112-14-12|-11|
A|-7-7/9-10-12-10-9--7-7----7/9-10-12-10|-9-|
E|--------------------------------------|---|

e|-------|                               /\
B|-------|                               ||
G|-------|                               that one just 1x
D|-17/16-|That ends the 2nd time.
A|-15/14-|
E|-------|
     -Very quick slide


 And thats all :)

************************************

| /   slide up
| \   slide down
| h   hammer-on
| p   pull-off
| ~   vibrato
| +   harmonic
| x   Mute note
| b   Bend
| pb  Pre-bend
| br  Bend release
| pbr Pre-bend release
| brb Bend release bend

************************************
Tap to rate this tab
 
# A B C D E F G H I J K L M N O P Q R S T U V W X Y Z