Song name
# A B C D E F G H I J K L M N O P Q R S T U V W X Y Z

Helloween - Where The Rain Grows tab

#----------------------------------PLEASE NOTE---------------------------------#
#This file is the author's own work and represents their interpretation of the #
#song. You may only use this file for private study, scholarship, or research. #
#------------------------------------------------------------------------------#

WHERE THE RAIN GROWS
As recorded by Helloween
(From the 1994 Album MASTER OF THE RINGS)

Transcribed by Lucus Turner
	

Words by Deris Music by Weikath

A5/E
0 7 7 9 x x
	
C5
x 3 5 5 x x
	
D5
x 5 7 7 x x
	
G5/D
x 5 5 7 x x
E5
x 7 9 9 x x
	
G5
3 5 5 x x x
	
G5(type 2)
3 5 x x x x
	
F#5
2 4 x x x x
E5(type 2)
0 2 x x x x
	
B5
x 2 4 x x x

Gtr I (D# G# C# F# A# D#) - 'Lead'
Gtr II (D# G# C# F# A# D#) - 'Rhythm'
Gtr III (D# G# C# F# A# D#) - 'Rhythm 2'
Gtr IV (D# G# C# F# A# D#) - 'Harmony'

 Intro
  Q=130
               E5                            C5            D5
 4/4
  Gtrs II, III
  Wx6          E S S S S Q  S S  S  S S  S   E S S S S S S E S S S S S S
|------------|-----------------------------|-----------------------------|
|------------|-----------------------------|-----------------------------|
|------------|-9---------9-----------------|-----------------------------|
|------------|-9---------9-----------------|-5---------2-2-7-------------|
|------------|-7---------7--7-7-10-10-9----|-3-----3-3-----5-7-7-9-9-5-5-|
|------------|---0-0-0-0----------------10-|---3-3-----------------------|


  E5                            C5            D5     E5
                                                       |----6----|
  E S S S S Q  S S  S  S S  S   E S S S S S S H      E S S S S S S H    +E
|-----------------------------|--------------------|-------------------------|
|-----------------------------|--------------------|-------------------------|
|-9---------9-----------------|-5-------------7----|-9-------------9----(9)--|
|-9---------9-----------------|-5---------2-2-7----|-9-------------9----(9)--|
|-7---------7--7-7-10-10-9----|-3-----3-3-----5----|-7-------------7----(7)--|
|---0-0-0-0----------------10-|---3-3--------------|---0-0-0-0-0-0-----------|


  C5                 D5      E5                       C5                 D5
                               |----6----|
   E  S  S  S  S S S  H      E S S S S S S H    +E     E  S  S  S  S S S  H
|--------------------------|------------------------|--------------------------|
|--------------------------|------------------------|--------------------------|
|----------------9-9-------|-9-------------9----(9)-|----------------9-9-------|
|-10-------10-10-----12----|-9-------------9----(9)-|-10-------10-10-----12----|
|-10-10-10-----------12----|-7-------------7----(7)-|-10-10-10-----------12----|
|--8-----------------10----|---0-0-0-0-0-0----------|--8-----------------10----|


  E5                       D5
  E S S S S Q.   S S S S   W
|------------------------|------|
|------------------------|------|
|-9---------9------------|-7----|
|-9---------9------------|-7----|
|-7---------7------------|-5----|
|---0-0-0-0------0-0-0-0-|------|


  A5/E                                C5                D5
  Gtrs II, III
  E   E   H.                           E   Q.           E   Q.
  |                                    |                |
  /                                    /                /

  Gtr I
  S S S S S  S S S  S S S S S S S S    S S S  S S S S S S S S  S S S  S S
|-8-0-7-0---------------------------|-10-0-8--0---------8-0-7--0----------|
|---------4--0-5-0-10-0-8-0-7-0-8-0-|-----------7-0-8-0----------8-0-10-0-|
|-----------------------------------|-------------------------------------|
|-----------------------------------|-------------------------------------|
|-----------------------------------|-------------------------------------|
|-----------------------------------|-------------------------------------|


  A5/E                                C5                D5
  Q       H.                           E   Q.           E   Q.
  |                                    |                |
  /                                    /                /

  S S S S S  S S S  S S S S S S S S    S S S  S S S S S S S S  S S S  S S
|-8-0-7-0---------------------------|-10-0-8--0---------8-0-7--0----------|
|---------4--0-5-0-10-0-8-0-7-0-8-0-|-----------7-0-8-0----------8-0-10-0-|
|-----------------------------------|-------------------------------------|
|-----------------------------------|-------------------------------------|
|-----------------------------------|-------------------------------------|
|-----------------------------------|-------------------------------------|


  A5/E                               C5               G5/D
  W                                   H               H
  |                                   |               |
  /                                   /               /

  S S S S S S S S  S S S S S S S S    S S S S S S S S S S S S S S  S S
|-8-0-7-0--------------------------|-10-0-8-0---------8-0-7-0----------|
|---------4-0-5-0-10-0-8-0-7-0-8-0-|----------7-0-8-0---------8-0-10-0-|
|----------------------------------|-----------------------------------|
|----------------------------------|-----------------------------------|
|----------------------------------|-----------------------------------|
|----------------------------------|-----------------------------------|


  A5/E                               C5               D5
  W                                   H               H
  |                                   |               |
  /                                   /               /

  S S S S S S S S  S S S S S S S S    S S S S S S S S S S S S S S  S S
|-8-0-7-0--------------------------|-10-0-8-0---------8-0-7-0----------|
|---------4-0-5-0-10-0-8-0-7-0-8-0-|----------7-0-8-0---------8-0-10-0-|
|----------------------------------|-----------------------------------|
|----------------------------------|-----------------------------------|
|----------------------------------|-----------------------------------|
|----------------------------------|-----------------------------------|


   Verse
    E5                            C5            D5
    Gtrs II, III
    E S S S S Q  S S  S  S S  S   E S S S S S S E S S S S S S
||------------------------------|-----------------------------|
||o-----------------------------|-----------------------------|
||--9---------9-----------------|-5-------------7-------------|
||--9---------9-----------------|-5-------------7-------------|
||o-7---------7--7-7-10-10-9----|-3-3-3-3-3-3-3-5-5-5-5-5-5-5-|
||----0-0-0-0----------------10-|-----------------------------|


  E5
  E S S S S Q  S S  S  S S  S
|-----------------------------|
|-----------------------------|
|-9---------9-----------------|
|-9---------9-----------------|
|-7---------7--7-7-10-10-9----|
|---0-0-0-0----------------10-|


  C5            D5     E5
  E S S S S S S H      E S S S S Q  S S  S  S S  S
|--------------------|-----------------------------|
|--------------------|-----------------------------|
|-5-------------7----|-9---------9-----------------|
|-5---------2-2-7----|-9---------9-----------------|
|-3-----3-3-----5----|-7-7-7-7-7-7--7-7-10-10-9----|
|---3-3--------------|--------------------------10-|


  C5            D5     E5                            C5            D5
  E S S S S S S H      E S S S S Q  S S  S  S S  S   E S S S S S S H
|--------------------|-----------------------------|--------------------|
|--------------------|-----------------------------|--------------------|
|-5-------------7----|-9---------9-----------------|-5-------------7----|
|-5---------2-2-7----|-9---------9-----------------|-5---------2-2-7----|
|-3-----3-3-----5----|-7-7-7-7-7-7--7-7-10-10-9----|-3-----3-3-----5----|
|---3-3--------------|--------------------------10-|---3-3--------------|


 Pre-Chorus
  B5
  W          S S S S S S S S S S S S S S S S
|----------|---------------------------------|
|----------|---------------------------------|
|-4--------|---------------------------------|
|-4--------|---------------------------------|
|-2--------|---------------------------------|
|----------|-0-0-0-0-0-0-0-0-0-0-0-0-0-0-0-0-|


                                                  B5
  Gtr I
  S S S S S S S S S S S S S S S S   Q  Q  Q  Q    W
|-0-0-3-0-0-2-0-0-3-0-0-2-0-0-3-0-|-------------|------|
|---------------------------------|-------------|------|
|---------------------------------|-------------|-4----|
|---------------------------------|-4--2--0-----|-4----|
|---------------------------------|----------3--|-2----|
|---------------------------------|-------------|------|
|
| Gtr IV
| S S S S S S S S S S S S S S S S   Q  Q  Q  Q    W
|---------------------------------|-------------|------|
|-1-1-5-1-1-3-1-1-5-1-1-3-1-1-5-1-|-------------|------|
|---------------------------------|-------------|-4----|
|---------------------------------|-0-----------|-4----|
|---------------------------------|----3--2--0--|-2----|
|---------------------------------|-------------|------|


  E5/B
  S S S S S S S S S S S S S S S S   S S S S S S S S S S S S S S S S
|---------------------------------|-0-0-3-0-0-2-0-0-3-0-0-2-0-0-3-0-|
|---------------------------------|---------------------------------|
|---------------------------------|---------------------------------|
|---------------------------------|---------------------------------|
|---------------------------------|---------------------------------|
|-0-0-0-0-0-0-0-0-0-0-0-0-0-0-0-0-|---------------------------------|
|
| W                                 S S S S S S S S S S S S S S S S
|---------------------------------|---------------------------------|
|---------------------------------|-1-1-5-1-1-3-1-1-5-1-1-4-1-1-5-1-|
|---------------------------------|---------------------------------|
|-2-------------------------------|---------------------------------|
|-2-------------------------------|---------------------------------|
|---------------------------------|---------------------------------|


               Chorus
              $
                G5           D5      B5   E5
  Q  Q  Q  Q    H.      Q    H.      Q    H.      Q
|-------------|------------|------------|------------|
|-------------|------------|------------|------------|
|-------2--4--|------------|-7-------4--|-4-------4--|
|-4--5--------|-5-------5--|-7-------4--|-2-------2--|
|-------------|-5-------5--|-5-------2--|------------|
|-------------|-3-------3--|------------|------------|
|
| Q  Q  Q  Q    W            H.      Q    H.      Q
|-------------|------------|------------|------------|
|-------------|------------|------------|------------|
|-------------|------------|-7-------4--|-4-------4--|
|-0--2--4--0--|-5----------|-7-------4--|-2-------2--|
|-------------|-5----------|-5-------2--|------------|
|-------------|-3----------|------------|------------|


                                                     1.
                                    To Coda
  B5      D5   G5           D5      E5/B E5          C5   D5
  Gtrs II, III
  H.      Q    H.      Q    H.      Q    W           H    H
|------------|------------|------------|----------||-----------|
|------------|------------|------------|----------||-----------|
|-4-------7--|------------|-7-------4--|-9--------||-5----7----|
|-4-------7--|-5-------5--|-7-------2--|-9--------||-5----7----|
|-2-------5--|-5-------5--|-5-------2--|-7--------||-3----5----|
|------------|-3-------3--|------------|----------||-----------|


  E5  E       E5       E       E5    C5               D5
  Gtrs II, III
  E   S S S S E    E   S S S S E      H               H
  |   | | | | |    |   | | | | |      |               |
  /   o / / / /    /   o / / / /      /               /

  Gtr I
  S S S S S S S S  S S S S S S S S    S S S S S S S S S S S S S S  S S
|-8-0-7-0--------------------------|-10-0-8-0---------8-0-7-0----------|
|---------4-0-5-0-10-0-8-0-7-0-8-0-|----------7-0-8-0---------8-0-10-0-|
|----------------------------------|-----------------------------------|
|----------------------------------|-----------------------------------|
|----------------------------------|-----------------------------------|
|----------------------------------|-----------------------------------|


  E5  E       E5       E       E5
  E   S S S S E    E   S S S S E
  |   | | | | |    |   | | | | |
  /   o / / / /    /   o / / / /

  S S S S S S S S  S S S S S S S S
|-8-0-7-0--------------------------|
|---------4-0-5-0-10-0-8-0-7-0-8-0-|
|----------------------------------|
|----------------------------------|
|----------------------------------|
|----------------------------------|


  C5              D5
  H               H
  |               |
  /               /

                  |----6----| |----6----|
  S S S S S S S S S S S S S S S S S S S S
|-8-0-7-0---------8p7p5----------------------||
|---------4-0-5-0-------8p7p5---------------o||
|-----------------------------8p6p5-3p1p0----||
|--------------------------------------------||
|-------------------------------------------o||
|--------------------------------------------||


                                      Guitar Solo 1
  2.
  C5   D5     E5E       E5   E         D5
  H    H      E S S S S Q.   S S S S   E E H.
  |    |      | | | | | |    | | | |   |
  /    /      / o / / / /    o / / /   /

  Gtr I
  H    H      E S S S S Q.   S S S S   H       +S  Q  S  S  S
|-----------|------------------------|------------------12-10--|
|-----------|------------------------|-------------------------|
|-5----7----|-9---------9------------|-7-------(7)-------------|
|-5----7----|-9---------9------------|-7-------(7)-------------|
|-3----5----|-7---------7------------|-5-------(5)-------------|
|-----------|---0-0-0-0------0-0-0-0-|-------------------------|


  E5 E            E5       E   E5
   E  S     S S S Q.       S S  E
   |  |     | | | |        | |  |
   /  o     / / / /        o /  /

   E  S     H          +S  E    S  S
|-12-12b14-12---------(12)-----------|
|------------------------------------|
|------------------------------12-14-|
|------------------------------------|
|------------------------------------|
|------------------------------------|


  D5                 C5 G5       E5    E           E5      E      E5
   H                 Q  Q         E    S S   S   S  Q.      S  S  E
   |                 |  |         |    | |   |   |  |       |  |  |
   /                 /  /         /    o /   /   /  /       o  /  /

   E     S  S   E  H       +E     Q         +E      Q    E  S  E.
|------------------------------|-22b24-----(22)\---12---15p12--------|
|------------------------------|------------------------------15-----|
|-14b16-14-12\-11--------------|-------------------------------------|
|-----------------12------(12)-|-------------------------------------|
|------------------------------|-------------------------------------|
|------------------------------|-------------------------------------|


  D5                                  C5              G5
   H                                   Q              Q
   |                                   |              |
   /                                   /              /

   |------6-------|  |------6-------|  |-----6------|
   S  S  S  S  S  S  S  S  S  S  S  S  S  S  S  S S S Q
|----------------14-21-19-17-15-15-12-10-----------------|
|----------15-17-------------------------12-12-----------|
|-------16-------------------------------------12-9-9-9--|
|----17--------------------------------------------------|
|-19-----------------------------------------------------|
|--------------------------------------------------------|


  E5      E       E5   E   E5
  E       S S S S Q.   S S E
  |       | | | | |    | | |
  /       o / / / /    o / /

  S   +S  S S H        S S S S
|-------------------------------|
|-5b7-(5)-3---5-----------------|
|-----------4-------------------|
|----------------------5-5-5-5--|
|-------------------------------|
|-------------------------------|


  D5      C5      G5   E5    E          E5   E       E5
  H       Q       Q     E     S  S  S S Q.     S   S  E
  |       |       |     |     |  |  | | |      |   |  |
  /       /       /     /     o  /  / / /      o   /  /

            \2.5/
  Q.    Q   Q.          S  S  S  S  H         +S   S  S  S
|--------------------|-------------19--------(19)-19-17-15-|
|--------------------|----17-19----------------------------|
|--------------------|-18-------17-------------------------|
|-5b7---2---2--------|-------------------------------------|
|--------------------|-------------------------------------|
|--------------------|-------------------------------------|


  D5                      C5          G5
   H                       Q           Q
   |                       |           |
   /                       /           /

   S  S  S  S  S  S  S  S  S  S  S  S  S  S  S  S
|-15-14-15-14-------------------------------------|
|-------------15----------------------------------|
|----------------14-12-14-12-14-12-11-12-11-------|
|-------------------------------------------12----|
|----------------------------------------------12-|
|-------------------------------------------------|


 Guitar Solo 2
  D                                          E  F#
   S   S    S   S  S  S  S  S  S  S  S  S  S  S  S  S
   |   |    |   |  |  |  |  |  |  |  |  |  |  |  |  |
   o   /    /   /  /  /  /  /  /  /  /  /  /  o  o  /

   S  +S   +S   S  S  S  S  S  S  S  S  S  S  S  S  S
|-12-(12)-(12)-------12-12-12----------12-10----------|
|--------------12-12----------12-10-12----------------|
|-----------------------------------------------------|
|--------------------------------------------14-12-14-|
|-----------------------------------------------------|
|-----------------------------------------------------|


  E                                                F# G
   S  S  S  S  S  S  S    S     S  S  S    S     S  S  S  S
   |  |  |  |  |  |  |    |     |  |  |    |     |  |  |  |
   o  /  /  /  /  /  /    /     /  /  /    /     /  o  o  /

                     |---3---|        |---3---|
   S  S  S  S  S  S  S  S    S  S  S  S  S    S  S  S  S  S
|-15-12-------------------------------------------------------|
|-------15-12-15-13-15-13---12----12--------------------------|
|------------------------------15----14-12------14-12----12---|
|--------------------------------------------14-------14------|
|-------------------------------------------------------------|
|-------------------------------------------------------------|


  F#                                          G  A
   S  S  S    S     S  S  S  S  S  S  S  S  S  S  S  S
   |  |  |    |     |  |  |  |  |  |  |  |  |  |  |  |
   o  /  /    /     /  /  /  /  /  /  /  /  /  o  o  /

         |---3---|
   S  S  S  S    S  S  S  S  S  S  S  S  S  S  S  S  S
|------------------------------------------------------|
|------------------------------------------------------|
|------------------------------------------------------|
|-14-12-14-12------14-12----12-------------------------|
|---------------14-------14----14-13-12-10-------------|
|------------------------------------------12-10-10-10-|


  G5(type 2)  F#5         E5(tB5e 2)
   Q           Q           Q  Q
   |           |           |  |
   /           /           /  /

                           ~~
   S  S  S  S  S  S  S  S  H
|-------------------------12-----|
|--------------------------------|
|--------------------------------|
|--------------------------------|
|-10-------12-14-13-12-----------|
|----12-10-------------12--------|


  D                                                             E    F#
   S    S     S  S  S    S     S    S     S    S     S  S  S    S     S    S
   |    |     |  |  |    |     |    |     |    |     |  |  |    |     |    |
   o    /     /  /  /    /     /    /     /    /     /  /  /    o     o    /

   |---3---|        |---3---|  |---3---|  |---3---|        |---3---|  |---3---|
   S  S    S  S  S  S  S    S  S  S    S  S  S    S  S  S  S  S    S  S  S    S
|---------------17-19-17-------------------------------17-19-17-----------------|
|----17---19-20------------20-19-17---------17---19-20------------20-19-17------|
|-19----------------------------------19-19----------------------------------19-|
|-------------------------------------------------------------------------------|
|-------------------------------------------------------------------------------|
|-------------------------------------------------------------------------------|


  E                                         F#   G
   S  S  S  S  S  S  S  S  S  S  S  S  S    S     S  S
   |  |  |  |  |  |  |  |  |  |  |  |  |    |     |  |
   o  /  /  /  /  /  /  /  /  /  /  /  /    o     o  /

                                       |---3---|
   S  S  S  S  S  S  S  S  S  S  S  S  S  S    S  S  S
|-19-15-22-17-15----15---------------------------------|
|-------------------------17-15------------------------|
|----------------19----19-------17-16-17-16---14----17-|
|------------------------------------------------17----|
|------------------------------------------------------|
|------------------------------------------------------|


  F#                                                  G    A
   S    S     S  S  S  S  S    S     S  S  S  S  S    S     S  S
   |    |     |  |  |  |  |    |     |  |  |  |  |    |     |  |
   o    /     /  /  /  /  /    /     /  /  /  /  /    o     o  /

   |---3---|              |---3---|              |---3---|
   S  S    S  S  S  S  S  S  S    S  S  S  S  S  S  S    S  S  S
|----------------------------------------------------------------|
|----------------------------------------------------------------|
|-16-14------14--------------------------------------------------|
|---------17----17-16-17-16-14------14-12----14----12------------|
|--------------------------------17-------15----15------15-12-14-|
|----------------------------------------------------------------|


  G5(type 2)  F#5       E5(type 2)  B5
   Q          Q          Q           Q
   |          |          |           |
   /          /          /           /

   S  S  S  S S  S S  S  S  S  S  S  S  S  S  S
|-----------------------------------------------|
|-----------------------------------------15-13-|
|-----------------------------------11-12-------|
|-----------------------------12-14-------------|
|-12-10-10-10-9-10-9----------------------------|
|--------------------10-12-10-------------------|


 Harmony Solo
  Gtr I
   S  S  S  S  S  S  S  S  S  S  S  S  S  S  S  S
|-------------10--8-------------------10--8-------|
|--8-10-12--8-------12-10--8-10-12--8-------12-10-|
|-------------------------------------------------|
|-------------------------------------------------|
|-------------------------------------------------|
|-------------------------------------------------|
|
| Gtr IV
|  S  S  S  S  S  S  S  S  S  S  S  S  S  S  S  S
|-------------------------------------------------|
|-------------------------------------------------|
|-------------16-14-------------------16-14-------|
|-14-16-17-14-------17-16-14-16-17-14-------17-16-|
|-------------------------------------------------|
|-------------------------------------------------|


   S  S  S  S  S  S  S  S  S  S  S  S  S  S  S  S
|--------------8--7--------------------8--7-------|
|--7--8-10--7-------10--7--7--8-10--7-------10--8-|
|-------------------------------------------------|
|-------------------------------------------------|
|-------------------------------------------------|
|-------------------------------------------------|
|
|  S  S  S  S  S  S  S  S  S  S  S  S  S  S  S  S
|-------------------------------------------------|
|-------------------------------------------------|
|-------------14-12-------------------14-12-------|
|-12-14-16-12-------16-14-12-14-16-12-------16-14-|
|-------------------------------------------------|
|-------------------------------------------------|


   S  S  S  S  S  S  S  S  S  S  S  S  S  S  S  S
|--------------7--5--------------------7--5-------|
|--5--7--8--5--------8--7--5--7--8--5--------8--7-|
|-------------------------------------------------|
|-------------------------------------------------|
|-------------------------------------------------|
|-------------------------------------------------|
|
|  S  S  S  S  S  S  S  S  S  S  S  S  S  S  S  S
|-------------------------------------------------|
|-------------------------------------------------|
|-------------19-17-------------------19-17-------|
|-17-19-21-17-------21-19-17-19-21-17-------21-19-|
|-------------------------------------------------|
|-------------------------------------------------|


   S  S  S  S  S  S  S  S  S  S  S  S  S  S  S  S
|-----------5--7--5--------8--7--5-----------5--7-|
|--5--7--8-----------8--7-----------8--7--8-------|
|-------------------------------------------------|
|-------------------------------------------------|
|-------------------------------------------------|
|-------------------------------------------------|
|
|  S  S  S  S  S  S  S  S  S  S  S  S  S  S  S  S
|-------------------------------------------------|
|-------------------------------------------------|
|----------11-12-11-------14-12-11----------11-12-|
|-10-12-14----------14-12----------14-12-14-------|
|-------------------------------------------------|
|-------------------------------------------------|


   S  S  S  S  S  S  S  S  S  S  S  S  S  S  S  S
|-------------10--8-------------------10--8-------|
|--8-10-12--8-------12-10--8-10-12--8-------12-10-|
|-------------------------------------------------|
|-------------------------------------------------|
|-------------------------------------------------|
|-------------------------------------------------|
|
|  S  S  S  S  S  S  S  S  S  S  S  S  S  S  S  S
|-------------------------------------------------|
|-------------------------------------------------|
|-------------16-14-------------------16-14-------|
|-14-16-17-14-------17-16-14-16-17-14-------17-16-|
|-------------------------------------------------|
|-------------------------------------------------|


   S  S  S  S  S  S  S  S  S  S  S  S  S  S  S  S
|--------------8--7--------------------8--7-------|
|--7--8-10--7-------10--7--7--8-10--7-------10--8-|
|-------------------------------------------------|
|-------------------------------------------------|
|-------------------------------------------------|
|-------------------------------------------------|
|
|  S  S  S  S  S  S  S  S  S  S  S  S  S  S  S  S
|-------------------------------------------------|
|-------------------------------------------------|
|-------------14-12-------------------14-12-------|
|-12-14-16-12-------16-14-12-14-16-14-------16-14-|
|-------------------------------------------------|
|-------------------------------------------------|


   S  S  S  S  S  S  S  S  S  S  S  S  S  S  S  S
|--------------7--5--------------------7--5-------|
|--5--7--8--5--------8--7--5--7--8--5--------8--7-|
|-------------------------------------------------|
|-------------------------------------------------|
|-------------------------------------------------|
|-------------------------------------------------|
|
|  S  S  S  S  S  S  S  S  S  S  S  S  S  S  S  S
|-------------------------------------------------|
|-------------------------------------------------|
|-------------19-17-------------------19-17-------|
|-17-19-21-17-------21-19-17-19-21-17-------21-19-|
|-------------------------------------------------|
|-------------------------------------------------|


   S  S  S  S  S S  S  S  S  S  S  S  S  S  S  S
|-----------5--7-5--------8--7--5-----------5--7-|
|--5--7--8----------8--7-----------8--7--8-------|
|------------------------------------------------|
|------------------------------------------------|
|------------------------------------------------|
|------------------------------------------------|
|
|  S  S  S  S  S S  S  S  S  S  S  S  S  S  S  S
|------------------------------------------------|
|------------------------------------------------|
|----------11-12-9-------14-12-11----------11-12-|
|-10-12-14---------14-12----------14-12-14-------|
|------------------------------------------------|
|------------------------------------------------|


   S S S  S S S  S S  S S  S S  S S  S S
|----------------------------------------|
|-19-0-0-17-0-0-19-0-15-0-19-0-17-0-15-0-|
|----------------------------------------|
|----------------------------------------|
|----------------------------------------|
|----------------------------------------|
|
|  S S S  S S S  S S  S S  S S  S S  S S
|----------------------------------------|
|-15-0-0-14-0-0-15-0-12-0-15-0-14-0-12-0-|
|----------------------------------------|
|----------------------------------------|
|----------------------------------------|
|----------------------------------------|


   S S S  S S S  S S  S S  S S  S S  S S
|----------------------------------------|
|-19-0-0-17-0-0-19-0-15-0-20-0-19-0-17-0-|
|----------------------------------------|
|----------------------------------------|
|----------------------------------------|
|----------------------------------------|
|
|  S S S  S S S  S S  S S  S S  S S  S S
|----------------------------------------|
|-15-0-0-14-0-0-15-0-12-0-17-0-15-0-14-0-|
|----------------------------------------|
|----------------------------------------|
|----------------------------------------|
|----------------------------------------|


   S S S  S S S  S S  S S  S S  S S  S S
|----------------------------------------|
|-19-0-0-17-0-0-19-0-15-0-22-0-20-0-19-0-|
|----------------------------------------|
|----------------------------------------|
|----------------------------------------|
|----------------------------------------|
|
|  S S S  S S S  S S  S S  S S  S S  S S
|----------------------------------------|
|-15-0-0-14-0-0-15-0-12-0-19-0-17-0-15-0-|
|----------------------------------------|
|----------------------------------------|
|----------------------------------------|
|----------------------------------------|


   |--3--|
   S  S  S  S  S  S  S  S  S  S  S  S  S  S  S  S  S
|-14-12-10----------------------------------------10--|
|----------14-12-10----------------------10-12-14-----|
|-------------------12-11--9-----9-11-12--------------|
|----------------------------12-----------------------|
|-----------------------------------------------------|
|-----------------------------------------------------|
|
|  |--3--|
|  S  S  S  S  S  S  S  S  S  S  S  S  S  S  S  S  S
|-----------------------------------------------------|
|-15-14-12----------------------------------------12--|
|----------14-12-11----------------------11-12-14-----|
|-------------------14-12-11----11-12-14--------------|
|----------------------------14-----------------------|
|-----------------------------------------------------|


   S S S  S S S  S S  S S  S S  S S  S S
|----------------------------------------|
|-19-0-0-17-0-0-19-0-15-0-19-0-17-0-15-0-|
|----------------------------------------|
|----------------------------------------|
|----------------------------------------|
|----------------------------------------|
|
|  S S S  S S S  S S  S S  S S  S S  S S
|----------------------------------------|
|-15-0-0-14-0-0-15-0-12-0-15-0-14-0-12-0-|
|----------------------------------------|
|----------------------------------------|
|----------------------------------------|
|----------------------------------------|


   S S S  S S S  S S  S S  S S  S S  S S
|----------------------------------------|
|-19-0-0-17-0-0-19-0-15-0-20-0-19-0-17-0-|
|----------------------------------------|
|----------------------------------------|
|----------------------------------------|
|----------------------------------------|
|
|  S S S  S S S  S S  S S  S S  S S  S S
|----------------------------------------|
|-15-0-0-14-0-0-15-0-12-0-17-0-15-0-14-0-|
|----------------------------------------|
|----------------------------------------|
|----------------------------------------|
|----------------------------------------|


   S S S  S S S  S S  S S  S S  S S  S S
|----------------------------------------|
|-19-0-0-17-0-0-19-0-15-0-22-0-20-0-19-0-|
|----------------------------------------|
|----------------------------------------|
|----------------------------------------|
|----------------------------------------|
|
|  S S S  S S S  S S  S S  S S  S S  S S
|----------------------------------------|
|-15-0-0-14-0-0-15-0-12-0-19-0-17-0-15-0-|
|----------------------------------------|
|----------------------------------------|
|----------------------------------------|
|----------------------------------------|


   |--3--|
   S  S  S  S  S  S  S  S  S  S  S  S  S  S  S  S  S
|-14-12-10----------------------------------------10--|
|----------14-12-10----------------------10-12-14-----|
|-------------------12-11--9-----9-11-12--------------|
|----------------------------12-----------------------|
|-----------------------------------------------------|
|-----------------------------------------------------|
|
|  |--3--|
|  S  S  S  S  S  S  S  S  S  S  S  S  S  S  S  S  S
|-----------------------------------------------------|
|-15-14-12----------------------------------------12--|
|----------14-12-11----------------------11-12-14-----|
|-------------------14-12-11----11-12-14--------------|
|----------------------------14-----------------------|
|-----------------------------------------------------|


  Q.   +E  E. +S  E. +S    E. +S  E. +S   E.  +S  E. +S
|------------------------|-------------------------------|
|------------------------|-------------------------------|
|-9----(9)--------9--(9)-|-7--(7)------------------------|
|----------9--(9)--------|--------9--(9)-----------------|
|------------------------|---------------10--(10)-9--(9)-|
|------------------------|-------------------------------|
|
| Q.   +E  E. +S  E. +S    E. +S  E. +S   E.  +S  E. +S
|------------------------|-------------------------------|
|-8----(8)--------8--(8)-|-7--(7)------------------------|
|----------7--(7)--------|--------7--(7)-----------------|
|------------------------|----------------9---(9)-7--(7)-|
|------------------------|-------------------------------|
|------------------------|-------------------------------|


   E.  +S  E. +S   E.  +S   E.  +S     E.  +S  E. +S  E. +S  E. +S
|-----------------------------------|-------------------------------|
|-----------------------------------|-10--(10)-7--(7)---------------|
|--------------------------12--(12)-|-----------------7--(7)--------|
|----------9--(9)-12--(12)----------|------------------------9--(9)-|
|-10--(10)--------------------------|-------------------------------|
|-----------------------------------|-------------------------------|
|
|  E.  +S  E. +S   E.  +S   E.  +S     W
|---------------------------7---(7)-|-------------------------------|
|------------------8---(8)----------|-10----------------------------|
|----------7--(7)-------------------|-------------------------------|
|--9---(9)--------------------------|-------------------------------|
|-----------------------------------|-------------------------------|
|-----------------------------------|-------------------------------|


                                  D.S. al Coda
   H        Q  Q    W           W           W
|-----------------|-----------|----------|--------||
|--8--------------|-----------|----------|--7-----||
|----------11--9--|-7---------|-9--------|--------||
|-----------------|-----------|----------|--------||
|-----------------|-----------|----------|--------||
|-----------------|-----------|----------|--------||
|
|  H        Q  Q    H    H      W           W
|-----------------|-----------|----------|--------||
|-10b12----10--8--|-7---------|-8--------|-10-----||
|-----------------|------7----|----------|--------||
|-----------------|-----------|----------|--------||
|-----------------|-----------|----------|--------||
|-----------------|-----------|----------|--------||


 Outro
  &
  C5   D5     E5  E       E5       E       E5
  Gtrs II, III
  H    H      E   S S S S E    E   S S S S E
  |    |      |   | | | | |    |   | | | | |
  /    /      /   o / / / /    /   o / / / /

  Gtr I
  H    H      S S S S S S S S  S S S S S S S S
|-----------|-8-0-7-0--------------------------|
|-----------|---------4-0-5-0-10-0-8-0-7-0-8-0-|
|-5----7----|----------------------------------|
|-5----7----|----------------------------------|
|-3----5----|----------------------------------|
|-----------|----------------------------------|
|
| Gtr IV
| H    H      S S S S S S S S  S S S S S S S S
|-----------|-8-0-7-0--------------------------|
|-----------|---------4-0-5-0-10-0-8-0-7-0-8-0-|
|-5----7----|----------------------------------|
|-5----7----|----------------------------------|
|-3----5----|----------------------------------|
|-----------|----------------------------------|


  C5               D5                 E5  E       E5       E       E5
   H               H                  E   S S S S E    E   S S S S E
   |               |                  |   | | | | |    |   | | | | |
   /               /                  /   o / / / /    /   o / / / /

   S S S S S S S S S S S S S S  S S   S S S S S S S S  S S S S S S S S
|-10-0-8-0---------8-0-7-0----------|-8-0-7-0--------------------------|
|----------7-0-8-0---------8-0-10-0-|---------4-0-5-0-10-0-8-0-7-0-8-0-|
|-----------------------------------|----------------------------------|
|-----------------------------------|----------------------------------|
|-----------------------------------|----------------------------------|
|-----------------------------------|----------------------------------|
|
|  S S S S S S S S S S S S S S  S S   S S S S S S S S  S S S S S S S S
|-10-0-8-0---------8-0-7-0----------|-8-0-7-0--------------------------|
|----------7-0-8-0---------8-0-10-0-|---------4-0-5-0-10-0-8-0-7-0-8-0-|
|-----------------------------------|----------------------------------|
|-----------------------------------|----------------------------------|
|-----------------------------------|----------------------------------|
|-----------------------------------|----------------------------------|


  C5               D5                 E5   E       E5       E         E5
   H               H                   E   S S S S E    E    S S  S S  E
   |               |                   |   | | | | |    |    | |  | |  |
   /               /                   /   o / / / /    /    o /  / /  /

   S S S S S S S S S S S S S S  S S    S S S S S S S S  S S  S S  S S  S S
|-10-0-8-0---------8-0-7-0----------|-10-0-8-0-----------------------------|
|----------7-0-8-0---------8-0-10-0-|----------7-0-8-0-13-0-12-0-10-0-12-0-|
|-----------------------------------|--------------------------------------|
|-----------------------------------|--------------------------------------|
|-----------------------------------|--------------------------------------|
|-----------------------------------|--------------------------------------|
|
|  S S S S S S S S S S S S S S  S S    S S S S S S S S  S S  S S  S S  S S
|-10-0-8-0---------8-0-7-0----------|--8-0-7-0-----------------------------|
|----------7-0-8-0---------8-0-10-0-|----------4-0-5-0-10-0--8-0--7-0--8-0-|
|-----------------------------------|--------------------------------------|
|-----------------------------------|--------------------------------------|
|-----------------------------------|--------------------------------------|
|-----------------------------------|--------------------------------------|


  C5                  D5
   H                   H
   |                   |
   /                   /

   S S  S S  S S  S S  S S  S S  S S  S S
|-14-0-12-0-----------12-0-10-0-----------|
|-----------10-0-12-0-----------12-0-13-0-|
|-----------------------------------------|
|-----------------------------------------|
|-----------------------------------------|
|-----------------------------------------|
|
|  S S  S S  S S  S S  S S  S S  S S  S S
|-10-0--8-0------------8-0--7-0-----------|
|------------7-0--8-0------------8-0-10-0-|
|-----------------------------------------|
|-----------------------------------------|
|-----------------------------------------|
|-----------------------------------------|


  E5   E       E5       E         E5
   E   S S S S E    E    S S  S S  E
   |   | | | | |    |    | |  | |  |
   /   o / / / /    /    o /  / /  /

   S S S S S S S S  S S  S S  S S  S S
|-10-0-8-0-----------------------------|
|----------7-0-8-0-13-0-12-0-10-0-12-0-|
|--------------------------------------|
|--------------------------------------|
|--------------------------------------|
|--------------------------------------|
|
|  S S S S S S S S  S S  S S  S S  S S
|--8-0-7-0-----------------------------|
|----------4-0-5-0-10-0--8-0--7-0--8-0-|
|--------------------------------------|
|--------------------------------------|
|--------------------------------------|
|--------------------------------------|


  C5                  D5                    E5
   H                   H                    W             W
   |                   |
   /                   /

   S S  S S  S S  S S  S S  S S  S S  S S   H    Q  Q     Q   Q   H
|-14-0-12-0-----------12-0-10-0-----------|------------|---------------|
|-----------10-0-12-0-----------12-0-13-0-|------------|---------------|
|-----------------------------------------|-9-------9--|-11--12--11----|
|-----------------------------------------|-9----------|---------------|
|-----------------------------------------|-7----------|---------------|
|-----------------------------------------|------------|---------------|
|
|  S S  S S  S S  S S  S S  S S  S S  S S   H    Q  Q     Q   Q   H
|-10-0--8-0------------8-0--7-0-----------|------------|---------------|
|------------7-0--8-0------------8-0-10-0-|------------|---------------|
|-----------------------------------------|-9----------|---------------|
|-----------------------------------------|-7-------5--|--7---9---7----|
|-----------------------------------------|-7----------|---------------|
|-----------------------------------------|------------|---------------|


        E5     E5           E5           E5
  Gtr II
   H    H      +W           +W           +W
|------------|------------|------------|--------|
|------------|------------|------------|--------|
|--7----9----|-(9)--------|-(9)--------|-(9)----|
|-------9----|-(9)--------|-(9)--------|-(9)----|
|-------7----|-(7)--------|-(7)--------|-(7)----|
|------------|------------|------------|--------|
|
| Gtr III
|  H    H      +W           +W           +W
|------------|------------|------------|--------|
|------------|------------|------------|--------|
|-11----9----|-(9)--------|-(9)--------|-(9)----|
|-------9----|-(9)--------|-(9)--------|-(9)----|
|-------7----|-(7)--------|-(7)--------|-(7)----|
|------------|------------|------------|--------|


  Gtrs II, III
  +W           +W           +H     E S S Q    +Q   H.
|------------|------------|-----------------|------------*|
|------------|------------|-----------------|------------*|
|-(9)--------|-(9)--------|-(9)----9-9-9-9--|-(9)--------*|
|-(9)--------|-(9)--------|-(9)----7-9-9-9--|-(9)--------*|
|-(7)--------|-(7)--------|-(7)----7-7-7-7--|-(7)--------*|
|------------|------------|-----------------|------------*|



Duration Legend
---------------
W - whole; H - half; Q - quarter; E - 8th; S - 16th; T - 32nd; X - 64th; a - acciaccatura
+ - note tied to previous; . - note dotted; .. - note double dotted
Uncapitalized letters represent notes that are staccato (1/2 duration)
Irregular groupings are notated above the duration line
Duration letters will always appear directly above the note/fret number it represents the
duration for.  Duration letters with no fret number below them represent rests.  Multi-
bar rests are notated in the form Wxn, where n is the number of bars to rest for.  Low
melody durations appear below the staff

Tablature Legend
----------------
 h   - hammer-on
 p   - pull-off
 b   - bend
 pb  - pre-bend
 r   - bend release (if no number after the r, then release immediately)
 /\  - slide into or out of (from/to "nowhere")
 s   - legato slide
 S   - shift slide
 - natural harmonic
[n]  - artificial harmonic
n(n) - tapped harmonic
 ~   - vibrato
 tr  - trill
 T   - tap
 TP  - trem. picking
 PM  - palm muting
\n/  - tremolo bar dip; n = amount to dip
 \n  - tremolo bar down
 n/  - tremolo bar up
/n\  - tremolo bar inverted dip
 =   - hold bend; also acts as connecting device for hammers/pulls
 <> - volume swell (louder/softer)
 x   - on rhythm slash represents muted slash
 o   - on rhythm slash represents single note slash

Misc Legend
-----------
 |  - bar
||  - double bar
||o - repeat start
o|| - repeat end
*|  - double bar (ending)
 :  - bar (freetime)
 $  - Segno
 &  - Coda
Tempo markers -  = BPM(8/16=s8/s16), where s8 = swing 8ths, s16 = swing 16ths

Tap to rate this tab
# A B C D E F G H I J K L M N O P Q R S T U V W X Y Z