Song name
# A B C D E F G H I J K L M N O P Q R S T U V W X Y Z

Helloween - Time Goes By tab

Chords:

   Dadd9    C       D        Dsus4     Em     G6   Asus2  Bmadd11 Bmadd1/A  A#add11+   Am    Dm7

E||--0--||--0--||--5(2)--||--3(10)-||--0--||--0--||--0--||---0---||---0---||---0---||--0--||--8--||
B||--7--||--1--||--7(3)--||--3(8)--||--0--||--0--||--0--||---3---||---3---||---3---||--1--||--6--||
G||--7--||--0--||--7(2)--||--2(7)--||--0--||--0--||--2--||---4---||---4---||---3---||--2--||--5--||
D||--0--||--2--||--0(0)--||--0(0)--||--2--||--0--||--2--||---4---||---4---||---3---||--2--||--0--||
A||--x--||--3--||--x(x)--||--x(x)--||--2--||--2--||--0--||---2---||---0---||---1---||--0--||--x--||
E||--x--||--x--||--x(x)--||--x(x)--||--0--||--3--||--x--||---x---||---x---||---x---||--x--||--x--||


    
12-strings guitar


     Dadd9                         C                        
     E     E  E  E  E  E  E  E     E  E  E  E  E  E  E  E   
E||-----------------0-----5-----|--------------------------|
B||-----------7--------7--------|-----------0--1--0--------|
G||--------7-----7--------------|--------0-----------0-----|
D||--0--------------------------|-----2-----------------2--|
A||--------------------------0--|--3-----------------------|
E||-----------------------------|--------------------------|


  D           Dsus4             C                     
  E  E  E  E  E     E  E  E     E  E  E  H        E   
-----------2--3p----2--------|-----------------------|
--------3--------------3-----|-----------1--------L--|
-----2--------------------2--|--------0--------------|
--0--------------------------|-----2-----------------|
-----------------------------|--3--------------------|
-----------------------------|-----------------------|


  Dadd9                         C                        
  E     E  E  E  E  E  E  E     E  E  E  E  E  E  E  E   
-----------------0-----5-----|--------------------------|
-----------7--------7--------|-----------0--1--0--------|
--------7-----7--------------|--------0-----------0-----|
--0--------------------------|-----2-----------------2--|
--------------------------0--|--3-----------------------|
-----------------------------|--------------------------|


  D             Dsus4           C                      
  E  E  E  E    E   E  E  E     E  E  E  Q.     E  E   
-----------2--2g3p--2--------|------------------------|
--------3--------------3-----|-----------1------------|
-----2--------------------2--|--------0---------0-----|
--0--------------------------|-----2---------------2--|
-----------------------------|--3---------------------|
-----------------------------|------------------------|


  Dadd9                         C                        
  E     E  E  E  E  E  E  E     E  E  E  E  E  E  E  E   
-----------------0-----5-----|--------------------------|
-----------7--------7--------|-----------0--1--0--------|
--------7-----7--------------|--------0-----------0-----|
--0--------------------------|-----2-----------------2--|
--------------------------0--|--3-----------------------|
-----------------------------|--------------------------|


  D           Dsus4             C                       Em              G6    
  E  E  E  E  E     E  E  E     E  E  E  H        E     Q    E  Q    E  Q     
-----------2--3p----2--------|-----------------------|-----------------------|
--------3--------------3-----|-----------1--------L--|----------0------------|
-----2--------------------2--|--------0--------------|----------0------------|
--0--------------------------|-----2-----------------|-------2---------------|
-----------------------------|--3--------------------|-----------------------|
-----------------------------|-----------------------|--0------------0--3----|


             Asus2                           G6                       
             ^                                                        
  E  Q    E  H           W                   E  E  E  E  E  E  E  E   
-----0-------0--------|--L----------------|--------------------------|
-----0-------0--------|--L----------------|-----------0--------------|
-------------2--------|--L----------------|--------0-----0-----------|
--0----------2--------|--L----------------|-----0-----------0-----0--|
-------------0--------|--L----------------|--------------------------|
----------3-----------|-------------------|--3-----------------3-----|


  Asus2                         Bmadd11                       
  E     E  E  E  E  E  E  E     E       E  E  E  E  E  E  E   
-----------------------------|----------------------0--------|
--------------0--------0-----|----------------3--------3-----|
-----------2-----2-----------|-------------4-----4--------4--|
--------2-----------2--------|----------4--------------------|
--0-----------------------0--|--2----------------------------|
-----------------------------|-------------------------------|


           Bmadd11/A                G6                Em                      
                                                      ^                       
  E  E  E  E         E  E  E  E     E  E  E  H        E     W                 
------------------------0--------|--------------------0--|--L----------------|
---------------------------3-----|-----------0--------0--|--L----------------|
--------4------------4--------4--|--------0-----------0--|--L----------------|
-----4---------------------------|-----0--------------2--|--L----------------|
--2--------0---------------------|--------------------2--|--L----------------|
---------------------------------|--3-----------------0--|--L----------------|


    D                       A#add11+                      D                     
    ^                       ^                             ^                     
    Q.     E  E  E  Q       Q        E  E  E  E  E  E     Q.     E  E  E  Q     
|---2---------2----------|-----------------0-----------|--2---------2----------|
|---3------------3-------|--3-----------------3--------|--3------------3-------|
|*--2---------------2----|--3--------------------3-----|--2---------------2----|
|*--0------0-------------|--3-----------3-----------3--|--0------0-------------|
|------------------------|--1--------1-----------------|-----------------------|
|------------------------|-----------------------------|-----------------------|


  A#add11+                                      Am                       
  ^                                      ^                               
  Q        E  E  E  E  E  E     E  E  E  Q.     Q       Q    E  E  Q     
-----------------0-----------|-----------0------0----|--L----0----------|
--3-----------------3--------|-----------3------1----|--L-------1-------|
--3--------------------3-----|--------3--3------2----|--L----------2----|
--3-----------3-----------3--|-----3-----3------2----|--L---------------|
--1--------1-----------------|--1--------1------0----|--L---------------|
-----------------------------|-----------------------|------------------|


  D      D      Dm7                           D      D      Dm7   
  ^      ^      ^                             ^      ^      ^     
  Q.     Q.     Q       W                     Q.     Q.     Q     
--2------5------8----|--L-----------------||--2------5------8----|
--3------7------6----|--L-----------------||--3------7------6----|
--2------7------5----|--L----------------*||--2------7------5----|
--0------0------0----|--L----------------*||--0------0------0----|
---------------------|--------------------||---------------------|
---------------------|--------------------||---------------------|


                      G6                         Asus2                       
  W                   E  E  E  E  E  E  E  E     E     E  E  E  E  E  E  E   
--L----------------|--------------------------|-----------------------------|
--L----------------|-----------0--------------|--------------0--------0-----|
--L----------------|--------0-----0-----------|-----------2-----2-----------|
--L----------------|-----0-----------0-----0--|--------2-----------2--------|
-------------------|--------------------------|--0-----------------------0--|
-------------------|--3-----------------3-----|-----------------------------|


  Bmadd11                                  Bmadd11/A              
  E       E  E  E  E  E  E  E     E  E  E  E         E  E  E  E   
----------------------0--------|------------------------0--------|
----------------3--------3-----|---------------------------3-----|
-------------4-----4--------4--|--------4------------4--------4--|
----------4--------------------|-----4---------------------------|
--2----------------------------|--2--------0---------------------|
-------------------------------|---------------------------------|


  G6                Em                          D                     
                    ^                           ^                     
  E  E  E  H        E     W                     Q.     E  E  E  Q     
--------------------0--|--L----------------||---2---------2----------|
-----------0--------0--|--L----------------||---3------------3-------|
--------0-----------0--|--L----------------||*--2---------------2----|
-----0--------------2--|--L----------------||*--0------0-------------|
--------------------2--|--L----------------||------------------------|
--3-----------------0--|--L----------------||------------------------|


  A#add11+                      D                     
  ^                             ^                     
  Q        E  E  E  E  E  E     Q.     E  E  E  Q     
-----------------0-----------|--2---------2----------|
--3-----------------3--------|--3------------3-------|
--3--------------------3-----|--2---------------2----|
--3-----------3-----------3--|--0------0-------------|
--1--------1-----------------|-----------------------|
-----------------------------|-----------------------|


  A#add11+                                      Am                       
  ^                                      ^                               
  Q        E  E  E  E  E  E     E  E  E  Q.     Q       Q    E  E  Q     
-----------------0-----------|-----------0------0----|--L----0----------|
--3-----------------3--------|-----------3------1----|--L-------1-------|
--3--------------------3-----|--------3--3------2----|--L----------2----|
--3-----------3-----------3--|-----3-----3------2----|--L---------------|
--1--------1-----------------|--1--------1------0----|--L---------------|
-----------------------------|-----------------------|------------------|


  D      D      Dm7                           D      D      Dm7   
  ^      ^      ^                             ^      ^      ^     
  Q.     Q.     Q       W                     Q.     Q.     Q     
--2------5------8----|--L-----------------||--2------5------8----|
--3------7------6----|--L-----------------||--3------7------6----|
--2------7------5----|--L----------------*||--2------7------5----|
--0------0------0----|--L----------------*||--0------0------0----|
---------------------|--------------------||---------------------|
---------------------|--------------------||---------------------|


                      D      D      Dm7                       
                      ^      ^      ^                         
  W                   Q.     Q.     Q       W                 
--L----------------|--2------5------8----|--L----------------|
--L----------------|--3------7------6----|--L----------------|
--L----------------|--2------7------5----|--L----------------|
--L----------------|--0------0------0----|--L----------------|
-------------------|---------------------|-------------------|
-------------------|---------------------|-------------------|


  Dm7                     Dsus4                     
  Q    Q    H             Q      Q      H           
--8------------------|--(10)----------------------||
-------6-------------|----------(8)---------------||
------------5--------|-----------------(7)--------||
---------------------|----------------------------||
---------------------|----------------------------||
---------------------|----------------------------||




Duration Legend
---------------
W - whole
H - half
Q - quarter
E - 8th
S - 16th
T - 32nd
X - 64th
. - note dotted
|-n-|  - n-tuplets


Tablature Legend
----------------
L - tied note
x - dead note
g - grace note
(n) - ghost note
> - accentuded note
NH - natural harmonic
AH - artificial harmonic
TH - tapped harmonic
SH - semi harmonic
PH - pitch harmonic
h - hammer on
p - pull off
b - bend
br - bendRelease
pb - preBend
pbr - preBendRelease
brb - bendReleaseBend
\n/ - tremolo bar dip
\n - tremolo bar dive
-/n - tremolo bar Release up
/n\ - tremolo bar inverted dip
/n - tremolo bar return
-\n - tremolo bar Release down
S - shift slide
s - legato slide
/ -  slide into from below or out of upwards
\ -  slide into from above or out of downwards
~ - vibrato
W - wide vibrato
tr - trill
TP - tremolo picking
T - tapping
S - slap
P - pop
< - fade in
^ - brush up
v - brush down
Tap to rate this tab
 
# A B C D E F G H I J K L M N O P Q R S T U V W X Y Z