Song name
# A B C D E F G H I J K L M N O P Q R S T U V W X Y Z

Helloween - Why tab

#----------------------------------PLEASE NOTE---------------------------------#
#This file is the author's own work and represents their interpretation of the #
#song. You may only use this file for private study, scholarship, or research. #
#------------------------------------------------------------------------------#

WHY?
As recorded by Helloween
(From the 1994 Album MASTER OF THE RINGS)

Transcribed by Ivan (peekaboo104@hotmail.com)
	

Words and Music by A.Deris

Gtr I (E A D G B E) - 'Untitled'
Gtr II (E A D G B E) - 'Untitled'
Gtr III (E A D G B E) - 'Untitled'

 Intro
  Moderate Rock Q=145
  N.C.          E5          G5          A5 B5    E5          G5
 4/4
  Gtr I
  Wx4           Q.   E +Q   Q    +H     Q   Q    Q.   E +Q   Q
|------------||----------------|---------------|----------------|
|------------||----------------|---------------|----------------|
|------------||-9----9-(9)--7--|-(7)----9--11--|-9----9-(9)--7--|
|------------||-9----9-(9)--5--|-(5)----7---9--|-9----9-(9)--5--|
|------------||-7----7-(7)-----|---------------|-7----7-(7)-----|
|------------||----------------|---------------|----------------|
|
| Gtr II
| Wx4           Q.   E +Q   Q    +H     Q   Q    Q.   E +Q   Q
|------------||----------------|---------------|----------------|
|------------||----------------|---------------|----------------|
|------------||----------------|---------------|----------------|
|------------||----------------|---------------|----------------|
|------------||-2----2-(2)--5--|-(5)----7---9--|-2----2-(2)--5--|
|------------||-0----0-(0)--3--|-(3)----5---7--|-0----0-(0)--3--|


                Verse
         A5      E5          G5          A5 B5    E5          G5
  +H     H       Q.   E +Q   Q    +H     Q   Q    Q.   E +Q   Q
|-------------||----------------|---------------|----------------|
|-------------||----------------|---------------|----------------|
|-(7)----9----||-9----9-(9)--7--|-(7)----9--11--|-9----9-(9)--7--|
|-(5)----7----||-9----9-(9)--5--|-(5)----7---9--|-9----9-(9)--5--|
|-------------||-7----7-(7)-----|---------------|-7----7-(7)-----|
|-------------||----------------|---------------|----------------|
|
| +H     H       Q.   E +Q   Q    +H     Q   Q    Q.   E +Q   Q
|-------------||----------------|---------------|----------------|
|-------------||----------------|---------------|----------------|
|-------------||----------------|---------------|----------------|
|-------------||----------------|---------------|----------------|
|-(5)----7----||-2----2-(2)--5--|-(5)----7---9--|-2----2-(2)--5--|
|-(3)----5----||-0----0-(0)--3--|-(3)----5---7--|-0----0-(0)--3--|


         B5      E5          G5          A5 B5    E5          G5
  +H      H      Q.   E +Q   Q    +H     Q   Q    Q.   E +Q   Q
|--------------|----------------|---------------|----------------|
|--------------|----------------|---------------|----------------|
|-(7)----11----|-9----9-(9)--7--|-(7)----9--11--|-9----9-(9)--7--|
|-(5)-----9----|-9----9-(9)--5--|-(5)----7---9--|-9----9-(9)--5--|
|--------------|-7----7-(7)-----|---------------|-7----7-(7)-----|
|--------------|----------------|---------------|----------------|
|
| +H      H      Q.   E +Q   Q    +H     Q   Q    Q.   E +Q   Q
|--------------|----------------|---------------|----------------|
|--------------|----------------|---------------|----------------|
|--------------|----------------|---------------|----------------|
|--------------|----------------|---------------|----------------|
|-(5)-----7----|-2----2-(2)--5--|-(5)----7---9--|-2----2-(2)--5--|
|-(3)-----5----|-0----0-(0)--3--|-(3)----5---7--|-0----0-(0)--3--|


                     Verses
                      E
                      PM----------------------------------------------------|
  +H      Q   Q       E E E E E E E E    E  E E E E E E E    E  E E E E E E E
|-----------------||------------------|-------------------|-------------------|
|-----------------||o-----------------|-------------------|-------------------|
|-(7)----12\------||------------------|-------------------|-------------------|
|-(5)----12\--x\--||------------------|-------------------|-------------------|
|-------------x\--||o-----------------|-------------------|-------------------|
|-------------x\--||--0-0-0-0-0-0-0-0-|--0--0-0-0-0-0-0-0-|--0--0-0-0-0-0-0-0-|
|
| +H      Q   Q       W                 +W                  +W
|-----------------||------------------|-------------------|-------------------|
|-----------------||o-----------------|-------------------|-------------------|
|--------12\------||------------------|-------------------|-------------------|
|--------12\--x\--||------------------|-------------------|-------------------|
|-(5)---------x\--||o-2---------------|-(2)---------------|-(2)---------------|
|-(3)---------x\--||--0---------------|-(0)---------------|-(0)---------------|


            G5   A5    E5
   PM-----|            PM----------------------------------------------------|
   E  E E E  Q   Q     E E E E E E E E    E  E E E E E E E    E  E E E E E E E
|--------------------|-----------------|-------------------|-------------------|
|--------------------|-----------------|-------------------|-------------------|
|-----------12\------|-----------------|-------------------|-------------------|
|-----------12\--x\--|-----------------|-------------------|-------------------|
|----------------x\--|-----------------|-------------------|-------------------|
|--0--0-0-0------x\--|-0-0-0-0-0-0-0-0-|--0--0-0-0-0-0-0-0-|--0--0-0-0-0-0-0-0-|
|
| +H         Q   Q     W                 +W                  +W
|--------------------|-----------------|-------------------|-------------------|
|--------------------|-----------------|-------------------|-------------------|
|--------------------|-----------------|-------------------|-------------------|
|--------------------|-----------------|-------------------|-------------------|
|-(2)--------5---7---|-2---------------|-(2)---------------|-(2)---------------|
|-(0)--------3---5---|-0---------------|-(0)---------------|-(0)---------------|


                    Pre-Chorus
            G5 G#5   A
   PM-----|          PM------|
   E  E E E Q  Q     E E E E  E   E E E
|-----------------||--------------------|
|-----------------||--------------------|
|-----------------||--------------------|
|-----------------||----------------5---|
|-----------5--6--||-------------/7---7-|
|--0--0-0-0-3--4--||-5-5-5-5--5---------|
|
| +H        Q  Q     E E E E +H
|-----------------||-------3-(3)--------|
|-----------------||-----5--------------|
|-----------------||---5----------------|
|-----------------||--------------------|
|-(2)-------5--6--||--------------------|
|-(0)-------3--4--||--------------------|


  D5                  A5
    PM|   PM--|         PM|
  E E E E S S E E E   E E E E  S  S  E E E
|-------------------|------------------------|
|-------------------|------------------------|
|-------------------|------------------------|
|-7-----7-----------|------------------5-----|
|-5-5-5-5-x-x-7-----|-7-----7--x--x-/7---7---|
|---------------8-7-|-5-5-5-5--x--x----------|
|
| W                   E E E E +H
|-------------------|-------3-(3)------------|
|-------------------|-----5------------------|
|-------------------|---5--------------------|
|-------------------|------------------------|
|-------------------|------------------------|
|-------------------|------------------------|


  N.C.                  A5                     N.C.              D
  PM----------------|     PM|                    PM|
  E E E E S S S S E E   E E E E  S  S  E E E   E E E E E E E E   W
|---------------------|----------------------|-----------------|------||
|---------------------|----------------------|-----------------|-7----||
|---------------------|----------------------|-----------------|-7----||
|---------------------|------------------5---|-4---------------|-7----||
|---------5-5-7-7-----|-7-----7--x--x-/7---7-|---5-5-7---------|-5----||
|-5-5-5-5---------8-7-|-5-5-5-5--x--x--------|-----------8-7-5-|------||
|
|                                                                <
| W                     E E E E +H             W                 W
|---------------------|-------3-(3)----------|-----------------|------||
|---------------------|-----5----------------|-----------------|-7----||
|---------------------|---5------------------|-----------------|-7----||
|---------------------|----------------------|-----------------|-7----||
|---------------------|----------------------|-----------------|-5----||
|---------------------|----------------------|-----------------|------||


 Chorus
  $
  $$
         E5                        C5            D5         B5
           H.               Q       H.      Q    W          Q.   E +Q   Q
|--------------------------------|-------------|----------|----------------|
|--------------------------------|-------------|----------|----------------|
|----------9----------------9----|--5-------5--|-7--------|----------------|
|----------9----------------9----|--5-------5--|-7--------|----------------|
|----------7----------------7----|--3-------3--|-5--------|-6--------------|
|--------------------------------|-------------|----------|------7-(7)--5--|
|
|          H.               Q       H.      Q    W          W
|--------------------------------|-------------|----------|----------------|
|--------------------------------|-------------|----------|----------------|
|----------9----------------9----|--5-------5--|-7--------|-4--------------|
|----------9----------------9----|--5-------5--|-7--------|-4--------------|
|----------7----------------7----|--3-------3--|-5--------|-2--------------|
|--------------------------------|-------------|----------|----------------|
|
| Gtr III
|  a      +H      +E   +E   E  E    W            W          W
|-14b15==(14)----(14)r(14)-12----|-------------|----------|----------------|
|-----------------------------12-|-12----------|----------|----------------|
|--------------------------------|-------------|----------|----------------|
|--------------------------------|-------------|----------|----------------|
|--------------------------------|-------------|----------|----------------|
|--------------------------------|-------------|----------|----------------|


                                              1.
                                      To Coda
                                      To Coda
  E5               C5          D5              N.C.
  Q  Q  +E  Q  E   H    H      Q.   E +H       Q.   E +Q   Q
|----------------|-----------|---------------|----------------|
|----------------|-----------|---------------|----------------|
|-9--9--(9)----4-|-5---------|-7-------------|----------------|
|-9--9--(9)-7----|-5---------|-7-------------|-------------4--|
|-7--7--(7)------|-3----3----|-5----5-(5)----|-6----7-(7)-----|
|----------------|-----------|---------------|----------------|
|
| Q  Q  +E  Q  E   H    H      Q.   E +H       Q.   E +Q   Q
|----------------|-----------|---------------|----------------|
|----------------|-----------|---------------|----------------|
|-9--9--(9)----4-|-5---------|-7-------------|----------------|
|-9--9--(9)-7----|-5---------|-7----4-(4)----|----------------|
|-7--7--(7)------|-3----7----|-5-------------|-2----4-(4)--6--|
|----------------|-----------|---------------|----------------|


              E5          G5          A5 B5    E5          G5
  W           Q.   E +Q   Q    +H     Q   Q    Q.   E +Q   Q
|----------||----------------|---------------|----------------|
|----------||----------------|---------------|----------------|
|----------||-9----9-(9)--7--|-(7)----9--11--|-9----9-(9)--7--|
|-4--------||-9----9-(9)--5--|-(5)----7---9--|-9----9-(9)--5--|
|----------||-7----7-(7)-----|---------------|-7----7-(7)-----|
|----------||----------------|---------------|----------------|
|
| W           Q.   E +Q   Q    +H     Q   Q    Q.   E +Q   Q
|----------||----------------|---------------|----------------|
|----------||----------------|---------------|----------------|
|----------||----------------|---------------|----------------|
|----------||----------------|---------------|----------------|
|-6--------||-2----2-(2)--5--|-(5)----7---9--|-2----2-(2)--5--|
|----------||-0----0-(0)--3--|-(3)----5---7--|-0----0-(0)--3--|


                     2.
                         D.S. al Coda
                      N.C.
  +H      Q   Q       Q.   E +Q   Q
|------------------||----------------||
|-----------------o||----------------||
|-(7)----12\-------||----------------||
|-(5)----12\--x\---||-------------4--||
|-------------x\--o||-6----7-(7)-----||
|-------------x\---||----------------||
|
| +H      Q   Q       Q.   E +Q   Q
|------------------||----------------||
|-----------------o||----------------||
|--------12\-------||----------------||
|--------12\--x\---||----------------||
|-(5)---------x\--o||-2----4-(4)--6--||
|-(3)---------x\---||----------------||


  &
  PM---------------|   PM-----|  PM-| PM PM
  E  E E E  E  E E E   H         Q    E  E
|--------------------|---------------------||
|--------------------|---------------------||
|--------------------|----------------9-12-||
|----------------4-4-|-5--5-5-7--7--7-9--9-||
|-6--6-6-7--7--7-----|---------------------||
|--------------------|---------------------||
|                      E  E E E  E  E E  E
|
| Q.     E +Q    Q     Q.     E +Q    Q
|--------------------|---------------------||
|--------------------|---------------------||
|--------------------|---------------------||
|--------------------|--------4-(4)---5----||
|-2------4-(4)---6---|-7-------------------||
|--------------------|---------------------||


 Guitar Solo I (Roland)
         C                                    D
                |--3---|
   a      +E   +S   S  S  E  E  Q   E  E       +E   E  E  E  Q.      +E
|-------------------------------------------|---------12----15b17---(15)-|
|-------------------------------------------|------12----12--------------|
|-14b16==(14)r(14)p12----14-12-----12-14b16-|-(14)-----------------------|
|---------------------14-------14-----------|----------------------------|
|-------------------------------------------|----------------------------|
|-------------------------------------------|----------------------------|
|
|          W                                    W
|-------------------------------------------|----------------------------|
|----------5--------------------------------|---7------------------------|
|----------5--------------------------------|---7------------------------|
|----------5--------------------------------|---7------------------------|
|----------3--------------------------------|---5------------------------|
|-------------------------------------------|----------------------------|


  G5                      D/F#
   S  S  S  S  S  S  S  S  S  S  S  S  S  S  S  S
|-15-12---------------------------------------------|
|-------15-12---------------------------------------|
|-------------14-12----12-12-13---------------------|
|-------------------14----------14-12---------------|
|-------------------------------------14-13-12-10---|
|---------------------------------------------------|
|
|  Q           Q           Q           Q
|---------------------------------------------------|
|--------------0-----------------------0------------|
|--------------0-----------------------0------------|
|---------------------------------------------------|
|--5-----------------------5------------------------|
|--3-----------------------2------------------------|


        E5               Bm/E        C
                       ~~~~~~~~                                                      ~~~
                                                          |--3---|
   a     +E   E  S  S  E  +H         E  a      +E   +E   +S   S  S  E  E  a     +E   E
|----------------------------------|---------------------------------------------------|
|----------------------------------|---15b17==(15)-(15)r(15)p12------------------------|
|----------------------------------|----------------------------14-12-14-14b16-(14)-14-|
|----------------------------------|---------------------------------------------------|
|-10b12-(10)-10--------------------|---------------------------------------------------|
|---------------12p10-12-(12)\-----|---------------------------------------------------|
|
|         Q      Q         Q    Q    Q               H.
|----------------------------------|---------------------------------------------------|
|----------------0--------------0--|-5---------------5---------------------------------|
|----------------0--------------0--|-5---------------5---------------------------------|
|--------------------------0-------|-5---------------5---------------------------------|
|---------2----------------2-------|-3---------------3---------------------------------|
|---------0----------------0-------|---------------------------------------------------|


  D
 ~~~~~~                           ~~~
        |--3--|
   +E   S  S  S  E   a       +E   Q.    S  S
|--------------------------------------------|
|--------------------------------------------|
|-(14)-14p12----14--12b12.5-(12)-------------|
|------------14------------------14----12-14-|
|--------------------------------------------|
|--------------------------------------------|
|
|   Q            H.
|--------------------------------------------|
|---7------------7---------------------------|
|---7------------7---------------------------|
|---7------------7---------------------------|
|---5------------5---------------------------|
|--------------------------------------------|


  B5
   PM------------|                ~~~~~~~~~
   E  E  E  E  E  E  a       +E   E    +E  E Q  H
|-----------------------------------|-----------------------||
|-----------------------------------|-----------------------||
|-----------------------------------|-----------------------||
|-12-14-----------------------------|-----------------------||
|-------12-14-------10b10.5-(10)----|--------x--x\----------||
|-------------10-12--------------12-|-(12)-x----------------||
|
|  W                                    H       E   E  E  E
|-----------------------------------|-----------------------||
|-----------------------------------|-----------------------||
|--4--------------------------------|---4-------------------||
|--4--------------------------------|---4-------------12-14-||
|--2--------------------------------|---2----------14-------||
|-----------------------------------|-----------------------||


 Guitar Solo II (Mike)
         C
           Q           H.
|----------------------------------------------------|
|----------5-----------5-----------------------------|
|----------5-----------5-----------------------------|
|----------5-----------5-----------------------------|
|----------3-----------3-----------------------------|
|----------------------------------------------------|
|
|  a      +E   +S   S  E   E  a      +Q.     a   +E
|----------------------------------------------------|
|----------------------------15b17==(15)---(15)r(15)-|
|-14b16==(14)r(14)p12-----12-------------------------|
|---------------------14-----------------------------|
|----------------------------------------------------|
|----------------------------------------------------|


  D                       G5           D/F#                E5              Bm/E
   Q  H.                   Q       Q    Q        Q          Q    Q          Q          Q
|-----------------------|--------------------------------|--------------------------------------|
|--7--7-----------------|----------0-------------0-------|-------0---------------------0--------|
|--7--7-----------------|----------0-------------0-------|-------0---------------------0--------|
|--7--7-----------------|--------------------------------|------------------0-------------------|
|--5--5-----------------|--5------------5----------------|--2---------------2-------------------|
|-----------------------|--3------------2----------------|--0---------------0-------------------|
|
|                                                                \1/   \1/
|  H       +E   E  E  E    Q      +Q    Q       +E   +E     Q   +E    +E    Q   a     +E   S  S
|-----------------12h14-|-14b15--(14)--14b15===(14)r(14)-|-12--(12)--(12)--12-------------------|
|-15------(15)-15-------|--------------------------------|--------------------------------12-12-|
|-----------------------|--------------------------------|---------------------14b16-(14)-------|
|-----------------------|--------------------------------|--------------------------------------|
|-----------------------|--------------------------------|--------------------------------------|
|-----------------------|--------------------------------|--------------------------------------|


        C
          Q         H.
|------------------------------------------------------------------|
|---------5---------5----------------------------------------------|
|---------5---------5----------------------------------------------|
|---------5---------5----------------------------------------------|
|---------3---------3----------------------------------------------|
|------------------------------------------------------------------|
|
|  a     +E   S  S  S  S  S  S  S  S  S  S  S  a      +S   +S   S
|------------------------------------------------------------------|
|------------12-12-15p12-13p12-13p12----12-------------------------|
|-14b16-(14)-------------------------15----15-14b16==(14)r(14)p12--|
|------------------------------------------------------------------|
|------------------------------------------------------------------|
|------------------------------------------------------------------|


  D                                N.C.
                                   PM----------------------
   Q           H.                  E E  E  E  E   E  E  E
|--------------------------------|------------------------|
|--7-----------7-----------------|------------------------|
|--7-----------7-----------------|------------------------|
|--7-----------7-----------------|------------------------|
|--5-----------5-----------------|-7-7--7--9--9---9-10-10-|
|--------------------------------|-8-8--8-10-10--10-12-12-|
|
|                           ~~
|  S  S  S  S  S   S  S  S  H      E E  E  E +E   E  E  E
|--------------------------------|------------------------|
|--------------------------------|------------------------|
|-14p12----12--------------------|------------------------|
|-------14----14--13p12----------|---------9-(9)----------|
|-----------------------14-10----|-7-9s10---------9-10h12-|
|--------------------------------|------------------------|


 -----------------------------------------------------------------------|
  E  E  E  E   E   E  E  E            E    E      E  E         E   E  E  E
|--------------------------|-------------------------------------------------|
|--------------------------|-------------------------------------------------|
|--------------------------|-------------------------------------------------|
|-7--7--7--9---9---9-10-10-|----------7----7------7--9---------9---9-10-10---|
|-9--9--9-10--10--10-12-12-|----------9----9------9-10--------10--10-12-12---|
|--------------------------|-------------------------------------------------|
|
| E  E  E  E  +E   E  E  E    a      +E   +S   S  E  E  a     +E   E  E  E
|--------------------------|-----------------------------------------12------|
|--------------------------|--------------------------------------12----12---|
|---------12-(12)-11-12s14-|-14b16==(14)r(14)p12----12-14b16-(14)------------|
|-9s10-12------------------|---------------------14--------------------------|
|--------------------------|-------------------------------------------------|
|--------------------------|-------------------------------------------------|


                    D.S.S. al Dbl. Coda
           PM-----------------------|
           E  E   E      E  E  E  E  E
|--------------------------------------||
|--------------------------------------||
|--------------------------------------||
|----------7--7---7------7--7--7--7--7-||
|----------5--5---5------5--5--5--5--5-||
|--------------------------------------||
|
|  a      +Q     +S   S  E  E  E  E  E
|-----------------------------------12-||
|-15b17==(15)r==(15)p12----12-13-15----||
|-----------------------14-------------||
|--------------------------------------||
|--------------------------------------||
|--------------------------------------||


                    Chorus
  &&
                     E5           C5
   Q.   E +Q   Q     H.      Q    H.      Q
|-----------------||------------|-------------|
|-----------------||------------|-------------|
|-----------------||-9-------9--|-5-------5---|
|--------------4--||-9-------9--|-5-------5---|
|--6----7-(7)-----||-7-------7--|-3-------3---|
|-----------------||------------|-------------|
|
|  Q.   E +Q   Q     H.      Q    H.      Q
|-----------------||------------|-------------|
|-----------------||------------|-------------|
|-----------------||-9-------9--|-5-------5---|
|-----------------||-9-------9--|-5-------5---|
|--2----4-(4)--6--||-7-------7--|-3-------3---|
|-----------------||------------|-------------|


  D5         B5               E5               C5
  W          Q.   E +Q   Q    Q  Q  +E  Q  E   H    H
|----------|----------------|----------------|-----------|
|----------|----------------|----------------|-----------|
|-7--------|----------------|-9--9--(9)----4-|-5---------|
|-7--------|----------------|-9--9--(9)-7----|-5---------|
|-5--------|-6--------------|-7--7--(7)------|-3----3----|
|----------|------7-(7)--5--|----------------|-----------|
|
| W          W                Q  Q  +E  Q  E   H    H
|----------|----------------|----------------|-----------|
|----------|----------------|----------------|-----------|
|-7--------|-4--------------|-9--9--(9)----4-|-5---------|
|-7--------|-4--------------|-9--9--(9)-7----|-5---------|
|-5--------|-2--------------|-7--7--(7)------|-3----7----|
|----------|----------------|----------------|-----------|


                                              Outro
  D5              N.C.                         E5          G5
  Q.   E +H       Q.   E +Q   Q    W           Q.   E +Q   Q
|---------------|----------------|----------||----------------|
|---------------|----------------|----------||----------------|
|-7-------------|----------------|----------||-9----9-(9)--7--|
|-7-------------|-------------4--|-4--------||-9----9-(9)--5--|
|-5----5-(5)----|-6----7-(7)-----|----------||-7----7-(7)-----|
|---------------|----------------|----------||----------------|
|
| Q.   E +H       Q.   E +Q   Q    W           Q.   E +Q   Q
|---------------|----------------|----------||----------------|
|---------------|----------------|----------||----------------|
|-7-------------|----------------|----------||----------------|
|-7----4-(4)----|----------------|----------||----------------|
|-5-------------|-2----4-(4)--6--|-6--------||-2----2-(2)--5--|
|---------------|----------------|----------||-0----0-(0)--3--|


         A5 B5    E5          G5                     E
                                                     PM------------|
  +H     Q   Q    Q.   E +Q   Q    +H      Q   Q     E E E E E E E E
|---------------|----------------|-----------------|-----------------|
|---------------|----------------|-----------------|-----------------|
|-(7)----9--11--|-9----9-(9)--7--|-(7)----12\------|-----------------|
|-(5)----7---9--|-9----9-(9)--5--|-(5)----12\--x\--|-----------------|
|---------------|-7----7-(7)-----|-------------x\--|-----------------|
|---------------|----------------|-------------x\--|-0-0-0-0-0-0-0-0-|
|
| +H     Q   Q    Q.   E +Q   Q    +H      Q   Q     W
|---------------|----------------|-----------------|-----------------|
|---------------|----------------|-----------------|-----------------|
|---------------|----------------|--------12\------|-----------------|
|---------------|----------------|--------12\--x\--|-----------------|
|-(5)----7---9--|-2----2-(2)--5--|-(5)---------x\--|-2---------------|
|-(3)----5---7--|-0----0-(0)--3--|-(3)---------x\--|-0---------------|


   PM----------------------------------
   E  E E E E E E E   E E E E E E E E
|-------------------|-----------------|
|-------------------|-----------------|
|-------------------|-----------------|
|-------------------|-----------------|
|-------------------|-----------------|
|--0--0-0-0-0-0-0-0-|-0-0-0-0-0-0-0-0-|
|
| +W                  W
|-------------------|-----------------|
|-------------------|-----------------|
|-------------------|-----------------|
|-------------------|-----------------|
|-(2)---------------|-2---------------|
|-(0)---------------|-0---------------|


                                G5   A5
 -----------------------------|
   E  E E E E E E E    E  E E E  Q   Q
|-------------------|--------------------||
|-------------------|--------------------||
|-------------------|-----------12\------||
|-------------------|-----------12\--x\--||
|-------------------|----------------x\--||
|--0--0-0-0-0-0-0-0-|--0--0-0-0------x\--||
|
| +W                  +H         Q   Q
|-------------------|--------------------||
|-------------------|--------------------||
|-------------------|--------------------||
|-------------------|--------------------||
|-(2)---------------|-(2)--------5---7---||
|-(0)---------------|-(0)--------3---5---||


    E5
    PM-----------------------------------
    E E E E E E E E    E  E E E E E E E
||------------------|-------------------|
||o-----------------|-------------------|
||------------------|-------------------|
||------------------|-------------------|
||o-----------------|-------------------|
||--0-0-0-0-0-0-0-0-|--0--0-0-0-0-0-0-0-|
|
|   W                 +W
||------------------|-------------------|
||o-----------------|-------------------|
||------------------|-------------------|
||------------------|-------------------|
||o-2---------------|-(2)---------------|
||--0---------------|-(0)---------------|


                                G5   A5
 -----------------------------|
   E  E E E E E E E    E  E E E  Q   Q
|-------------------|----------------------||
|-------------------|---------------------o||
|-------------------|-----------12\--------||
|-------------------|-----------12\--x\----||
|-------------------|----------------x\---o||
|--0--0-0-0-0-0-0-0-|--0--0-0-0------x\----||
|
| +W                  +H         Q   Q
|-------------------|----------------------||
|-------------------|---------------------o||
|-------------------|----------------------||
|-------------------|----------------------||
|-(2)---------------|-(2)--------5---7----o||
|-(0)---------------|-(0)--------3---5-----||



Duration Legend
---------------
W - whole; H - half; Q - quarter; E - 8th; S - 16th; T - 32nd; X - 64th; a - acciaccatura
+ - note tied to previous; . - note dotted; .. - note double dotted
Uncapitalized letters represent notes that are staccato (1/2 duration)
Irregular groupings are notated above the duration line
Duration letters will always appear directly above the note/fret number it represents the
duration for.  Duration letters with no fret number below them represent rests.  Multi-
bar rests are notated in the form Wxn, where n is the number of bars to rest for.  Low
melody durations appear below the staff

Tablature Legend
----------------
 h   - hammer-on
 p   - pull-off
 b   - bend
 pb  - pre-bend
 r   - bend release (if no number after the r, then release immediately)
 /\  - slide into or out of (from/to "nowhere")
 s   - legato slide
 S   - shift slide
 - natural harmonic
[n]  - artificial harmonic
n(n) - tapped harmonic
 ~   - vibrato
 tr  - trill
 T   - tap
 TP  - trem. picking
 PM  - palm muting
\n/  - tremolo bar dip; n = amount to dip
 \n  - tremolo bar down
 n/  - tremolo bar up
/n\  - tremolo bar inverted dip
 =   - hold bend; also acts as connecting device for hammers/pulls
 <> - volume swell (louder/softer)
 x   - on rhythm slash represents muted slash
 o   - on rhythm slash represents single note slash

Misc Legend
-----------
 |  - bar
||  - double bar
||o - repeat start
o|| - repeat end
*|  - double bar (ending)
 :  - bar (freetime)
 $  - Segno
 &  - Coda
Tempo markers -  = BPM(8/16=s8/s16), where s8 = swing 8ths, s16 = swing 16ths

Tap to rate this tab
# A B C D E F G H I J K L M N O P Q R S T U V W X Y Z