Song name
# A B C D E F G H I J K L M N O P Q R S T U V W X Y Z

Helloween - I Want Out tab

Well,my first tab.The others were awfully wrong so I decided to do it my own.
This shall be pretty accurate.Enjoy!!!



Tuning : EADGBe (Standard)


Introduction:
Lead Guitar:
First part:
|----17----17------17------17------15----17---------------------|
|-------15-----15------15------15------------15~----------------|
|---------------------------------------------------------------|
|---------------------------------------------------------------|
|---------------------------------------------------------------|
|---------------------------------------------------------------|

|---17------17------17------17-------15--17--18-17-15-----|
|------15------15-------15------15------------------------|
|---------------------------------------------------------|
|---------------------------------------------------------|  x2
|---------------------------------------------------------|
|---------------------------------------------------------|

While rhythm Guitar plays:
Riff 1:
|-----------------------|
|-----------------------|
|-----------------------|
|-7~---7-3~---3---5---5-|x2
|-5~---5-1~---1-333-333-|
|-----------------------|

Second part:
Lead:
|-----17--------17---20b22~------|
|15--------15--------------------|
|--------------------------------|
|--------------------------------|
|--------------------------------|
|--------------------------------|
|Rhythm::
Riff 2:
|-------------------------------------------|
|-------------------------------------------|
|-------------------------------------------|
|-------------------------12-12-10-9--5-7~--|
|-------------------------10-10-8--7--3/5~--|
|-------------------------------------------|

Verse:Let the chord ring,at end of phrase play Riff 2

Pre-chorus:
|---------------------------------|
|---------------------------------|
|---------------------------------|
|7-7-5~---------3~---3-222222222--|
|5-5-3~---5~----1~---1-000000000--|
|---------3~----------------------|

Chorus:Riff 1

Verse 2:
|--------------------------------------------------------|---------------|
|--------------------------------------------------------|---------------|
|--------------------------------------------------------|(First-phrase)-|
|---7--7--7--7--77--7--7--3--3--33--5--5--5--5--55--7--7-|---RIFF-2------|
|-555555555555555555555555111111111133333333333333555555-|---------------|
|--------------------------------------------------------|---------------|
  ** ** ** ** **  ** ** ** ** **  ** ** ** ** **  ** ** 
Pre-Chorus:The same as above.

Chorus:Riff 1.

After Chorus play introduction second part.

Verse 3:
|----------------------------------------------------------------|
|----------------------------------------------------------------|
|----------------------------------------------------------------|
|33333-333-33333-------1-3-1-------------------------------------|
|11111-111-11111-1-3-5-------5-3-55555-555-55555-------3-5-3-----|
|--------------------------------33333-333-33333-3-5-7-------7-5-|

|---------------------------------|------------------|
|---------------------------------|------------------|
|---------------------------------|------------------|
|---------------------------------|------------------|
|-33332-332-33332-------1-3-1-----|-----12-TRILL-13--|
|-11110-110-11110-1-3-5-------5-3-|------------------|

Solo:
|---------------15b~-15b15~--15b15------12-TRILL-13-|
|15b-15b--13----------------------------------------|
|---------------------------------------------------|
|---------------------------------------------------|
|---------------------------------------------------|
|---------------------------------------------------|

|--------------------------------------------------------------------------|
|-----------------------------------------------------------12h13p12h13p12-|
|--------------------------------------------------------------------------|
|--15-14-12----15-14-12--15-14-17-15-14----17-15-14--17-15-----------------|
|--------------------------------------------------------------------------|
|--------------------------------------------------------------------------|

|--------------------------------------------------------------------------|
|--------------------------------------------------------------------------|
|-12h14p12---10h12p10---9h10p9---7h9p7-------------------------------------|
|------------------------------------------7~~~~~--------------------------|
|--------------------------------------------------------------------------|
|--------------------------------------------------------------------------|

|--------------------------20------20----------------19-19-19--20--22--20-|
|----------------------20b----20b-----20b---------------------------------|
|--19b~19b19-17-----------------------------------------------------------|
|-------------------------------------------------------------------------|
|-------------------------------------------------------------------------|
|-------------------------------------------------------------------------|
                                        
|-22b~~--22b~--------24p22p20--22p20p19--20p19------------|
|----------------------------------------------22---------|
|---------------------------------------------------------|
|---------------------------------------------------------|
|---------------------------------------------------------|
|---------------------------------------------------------|
   
|-19-----------------------------------------------------------------------|
|----22p20--22p20p18--20p18p17--18p17-----17-------------------------------|
|-------------------------------------19-----19p17--19p17p16--17p16p14-----|
|--------------------------------------------------------------------------|
|--------------------------------------------------------------------------|
|--------------------------------------------------------------------------|
   
|--------------------------------------------------------------------------|
|--------------------------------------------------------------------------|
|-16p14p12--14p12p10--12p10p9--10p9-----9----------------------------------|  
|-----------------------------------12----12p10----------------------------|
|-----------------------------------------------12~~~~~~~~~~---------------|
|--------------------------------------------------------------------------|

After solo:
|---------------------------------------------------------|
|15~--17-18~---18b18-------15~--17-18~---18b18--20b20~----|
|--------------------17~----------------------------------|   x2
|---------------------------------------------------------|
|---------------------------------------------------------|
|---------------------------------------------------------|

Bass solo*

Repeat Chorus.

The chorus is played again 2 frets forwards (one tone ahead)


Ending:
I want out!!
|-------------------|
|-------------------|
|-------------------|
|--------99----99---|
|--------77!---77!--|
|-------------------|
Tap to rate this tab
# A B C D E F G H I J K L M N O P Q R S T U V W X Y Z