Song name
# A B C D E F G H I J K L M N O P Q R S T U V W X Y Z

Helloween - Escalation 666 tab

Guitar: 7 Strings
Tuning: DAFCGDA
Key:
 * Pinch Harmonic
 ~ Vibrato
 / Slide Up
 - Palm Mute

   Riff1                                                      Riff2
D|---------------------------|               D|-------------------------|
A|---------------------------|               A|-------------------------|
F|---------------------------|               F|-------------------------|
C|---------------------------|               C|-------------------------|
G|----------------------7*~--|               G|-------------------------|
D|2-2--2-2--2-2--2-2--2------|               D|2-2--2-2--2-2--2-2--2----|
A|0-0--0-0--0-0--0-0--0------|               A|0-0--0-0--0-0--0-0--0----|
PM---------------------                      PM---------------------

Intro: Riff1 x3 + Riff2 + Riff1 x3 + Riff2

Verse:

D|----------------------------------------------------------------|
A|----------------------------------------------------------------|
F|----------------------------------------------------------------|
C|----------------------------------------------------------------| x4
G|----------------------------------------------------------------|
D|----------------------5--/8----5------------------------3-5-3-2-|
A|0-000-000-000-000-000-3--/6----3--0-000-000-000-000-000-1-3-1-0-|
  PM-------------------             PM-------------------
Pre-Chorus:

D|--------------------------------------------|
A|--------------------------------------------|
F|--------------------------------------------|
C|--------------------------------------------|
G|--------------------------------------------|
D|4--2-4-5-2-4--2-7-5-2-4--2-4-5-2-4-2-2-2-2--|
A|2--0-2-3-0-2--0-5-3-0-2--0-2-3-0-2-0-0-0-0--|
   PM-------  PM-------  PM-------
Chorus:

D|----------------------------|
A|----------------------------|
F|----------------------------|
C|----------------------------| x 8
G|----------------------------|
D|----------------------------|
A|0-6-5-0-5-3-0-0-0-5-3-0-5-3-|
PM---------------------------
Pre-Solo: Riff2 x 2

Solo: Rhythm Guitar:

D|-----------------------------------|
A|-----------------------------------|
F|-----------------------------------|
C|-----------------------------------|
G|----------------------------7 / 9--|
D|5--5-5--4-4-4--2-2--2--2-2--5 / 7--|
A|3--3-3--2-2-2--0-0--0--0-0---------|

D|-------------------------------------------|
A|-------------------------------------------|
F|-------------------------------------------|
C|-------------------------------------------|
G|-------------------------------------------|
D|5--5-5--7-7-7-7-2--2--2--5-2--5--5-5--4-4-4|
A|3--3-3--5-5-5-5-0--0--0--3-0--3--3-3--2-2-2|

D|------------------------------------------------------|
A|------------------------------------------------------|
F|------------------------------------------------------|
C|------------------------------------------------------|
G|------------------------------------------------------|             _
D|2-2--2-2--2-2--2-2--2-2-2--2-2--2-2--2-2--2-2--2-2-2--|              |
A|0-0--0-0--0-0--0-0--0-0-0--0-0--0-0--0-0--0-0--0-0-0--|              |
PM----------------------------------------------------                 |
                                                                       | x2
D|-----------------------------------------------------------|         |
A|-----------------------------------------------------------|        _|
F|-----------------------------------------------------------|
C|-----------------------------------------------------------|
G|-----------------------------------------------------------|
D|2-2--2-2--2-2--2-2--2-2-2----------------------------------|
A|0-0--0-0--0-0--0-0--0-0-0--3-5-3-0-3-0-3-5-3-0-3-0-3-0-5-3-|
PM----------------------------------------------------------


Outro: Same as chorus
Tap to rate this tab
# A B C D E F G H I J K L M N O P Q R S T U V W X Y Z