Song name
# A B C D E F G H I J K L M N O P Q R S T U V W X Y Z

Helloween - Savage tab

Author/Artist: Helloween 
      Title: SAVAGE 
      Album: The Best-The Rest-The Rare 
      Email: mwicks@mailexcite.com 

      --------------|-----------|-------------|------|-------|---------------------- 
      --------------|-----------|-------------|------|-------|---------------------- 
      -------2------|------x2-x4|-------2-----|-7-6-4|-2-----|---------------------- 
      -4------2--4-2|--4---x2-x4|-4-----2-4-2-|-7-6-4|-2-----|-2v------------------- 
      -4------0--4-2|--4---x0-x2|-4-----0-4-2-|-5-4-2|-0-----|-2v------------------- 
      -2---------2-0|--2--------|-2-------2-2-|------|---4-2-|-0v------------------- 
       vv^vv           vv^v       vv^vv                                              

      -------|-------|-----|----|------|-------|----------|------------------------- 
      -------|-------|-----|----|------|-------|----------|------------------------- 
      -------|-------|-----|-2-4|-4----|-4-----|-4----9--9|------------------------- 
      -4-----|-4-----|-4---|-2-4|-4----|-4-----|-4----9--9|------------------------- 
      -4-----|-4-----|-4---|-0-2|-2----|-2-----|-2----7--7|------------------------- 
      -2-----|-2-----|-2---|----|------|-------|----------|------------------------- 
       vv^vv   vvv^v   vv^v       vv^vv   vv^v   vv^v                                

      -----------|------------|----------------|------------------------------------ 
      -----------|------------|----------------|------------------------------------ 
      ----2--7--9|----2--7--6-|----------------|------------------------------------ 
      -4--2--7--9|-4--2--7--6-|---7---6---4---2|------------------------------------ 
      -4--0--5--7|-4--0--5--4-|----------------|------------------------------------ 
      -2---------|-2----------|-5---4---2---0--|------------------------------------
Tap to rate this tab
 
# A B C D E F G H I J K L M N O P Q R S T U V W X Y Z