Guitaretab - guitar tabs
Song name
# A B C D E F G H I J K L M N O P Q R S T U V W X Y Z

Helloween - Just A Little Sign tab

#----------------------------------PLEASE NOTE---------------------------------#
#This file is the author's own work and represents their interpretation of the #
#song. You may only use this file for private study, scholarship, or research. #
#------------------------------------------------------------------------------#

JUST A LITTLE SIGN
As recorded by Helloween
(From the 2003 Album RABBIT DON'T COME EASY)

Transcribed by kev_121s@hotmail.com
	

Words and Music by Andi Deris
Arranged by kevin Mendes

Gtr I (E A D G B E) - 'Guitar 1'
Gtr II (Eb Ab Db Gb Bb Eb) - 'Guitar 2'
Gtr III (Eb Ab Db Gb Bb Eb) - 'Guitar 3'

 Intro
  Q=160
 4/4
  Gtr I
  W          S S S S S S S S S S S S S S S S
|----------|-2-2-2-2-2-2-2-2-2-2-2-2-2-2-2-2-|
|----------|---------------------------------|
|----------|---------------------------------|
|----------|---------------------------------|
|----------|---------------------------------|
|----------|---------------------------------|
|
| Gtr II
| W          W
|----------|---------------------------------|
|----------|---------------------------------|
|----------|---------------------------------|
|----------|-5-------------------------------|
|----------|-5-------------------------------|
|----------|-3-------------------------------|
|
| Gtr III
| W          S S S S S S S S S S S S S S S S
|----------|---------------------------------|
|----------|---------------------------------|
|----------|---------------------------------|
|----------|---------------------------------|
|----------|---------------------------------|
|----------|-3-3-3-3-3-3-3-3-3-3-3-3-3-3-3-3-|


  S  S S S S S S S S S S S S S S S   S S S S S S S S S S S S S S S S
|--------------4-4-4-4-4-4---------|---------------------------------|
|-2--2-2-2-2-2-------------6-6-6-6-|-7-7-7-7-7-7-7-7-7-7-7-7-7-7-7-7-|
|----------------------------------|---------------------------------|
|----------------------------------|---------------------------------|
|----------------------------------|---------------------------------|
|----------------------------------|---------------------------------|
|
| H.                       Q         W
|--------------------------2-------|---------------------------------|
|-3------------------------2-------|-5-------------------------------|
|-2--------------------------------|-4-------------------------------|
|-0------------------------4-------|-2-------------------------------|
|----------------------------------|---------------------------------|
|----------------------------------|---------------------------------|
|
| S  S S S S S S S S S S S S S S S   S S S S S S S S S S S S S S S S
|----------------------------------|---------------------------------|
|----------------------------------|---------------------------------|
|----------------------------------|---------------------------------|
|----------------------------------|-2-2-2-2-2-2-2-2-2-2-2-2-2-2-2-2-|
|-5--5-5-5-5-5-5-5-5-5-5-5---------|---------------------------------|
|--------------------------2-2-2-2-|---------------------------------|


  S  S S S S S S S  S  S S S S S S S   S S S S S S S S S S S S S S S S
|------------------------------------|---------------------------------|
|-6--6-6-6-6-6-7-7--7--7-7-7-9-9-9-9-|---------------------------------|
|------------------------------------|-8-8-8-8-8-8-8-8-8-8-8-8-8-8-8-8-|
|------------------------------------|---------------------------------|
|------------------------------------|---------------------------------|
|------------------------------------|---------------------------------|
|
| Q.           E   +Q        Q         W
|------------------------------------|---------------------------------|
|--------------3---(3)-------5-------|---------------------------------|
|-6------------0---(0)-------2-------|-5-------------------------------|
|-4----------------------------------|-5-------------------------------|
|------------------------------------|-3-------------------------------|
|------------------------------------|---------------------------------|
|
| S  S S S S S S S  S  S S S S S S S   S S S S S S S S S S S S S S S S
|------------------------------------|---------------------------------|
|------------------------------------|---------------------------------|
|------------------------------------|---------------------------------|
|------------------------------------|---------------------------------|
|----------------------------0-0-0-0-|-3-3-3-3-3-3-3-3-3-3-3-3-3-3-3-3-|
|-2--2-2-2-2-2-3-3--3--3-3-3---------|---------------------------------|


  S S S S S S S S S S S S S S S S   S S S S S S S S S S S S S S S S
|---------------------------------|---------------------------------|
|-------------6-6-6-6-6-6-7-7-7-7-|-6-6-6-6-6-6-7-7-7-7-7-7-9-9-9-9-|
|-8-8-8-8-8-8---------------------|---------------------------------|
|---------------------------------|---------------------------------|
|---------------------------------|---------------------------------|
|---------------------------------|---------------------------------|
|
| Q       Q       Q       Q         E   S S S S S S S S S S S S S S
|---------------------------------|---------------------------------|
|---------------------------------|-3-------------------------------|
|---------------------------------|-2-------------------------------|
|-5-------4-------2-------0-------|-0---0-0-0-0-0-0-0-0-0-0-0-0-0-0-|
|---------------------------------|---------------------------------|
|---------------------------------|---------------------------------|
|
| Q       Q       Q       Q         S S S S S S S S S S S S S S S S
|---------------------------------|---------------------------------|
|---------------------------------|---------------------------------|
|---------------------------------|---------------------------------|
|-5-------4-------2-------0-------|-4-4-4-4-4-4-5-5-5-5-5-5-7-7-7-7-|
|---------------------------------|---------------------------------|
|---------------------------------|---------------------------------|


  S S S S  S  S  S  S  S  S  E    Q
|--------------------------------------------|
|-7-7-9-9-11-11-12-12-14-14-16---------------|
|--------------------------------------------|
|--------------------------------------------|
|--------------------------------------------|
|--------------------------------------------|
|
| S S S S  S  S  S  S  S  S  S S  S  S  S  S
|--------------------------------------------|
|--------------------------------------------|
|--------------------------------------------|
|-0-0-0-0--0--0--0--0--0--0--0-0--0--0--0--0-|
|--------------------------------------------|
|--------------------------------------------|
|
| S S S S  S  S  S  S  S  S  E    S  S  S  S
|--------------------------------------------|
|--------------------------------------------|
|--------------------------------------------|
|-5-5-7-7--9--9-10-10-12-12-14---14-14-14-14-|
|--------------------------------------------|
|--------------------------------------------|


 Bridge
   W
|---------------------------------------|
|---------------------------------------|
|---------------------------------------|
|---------------------------------------|
|---------------------------------------|
|---------------------------------------|
|
|  S  S S S S S  S  S S S  S S  S S S S
|----------------5----------------------|
|--6--5----------5--6------6----5-------|
|--5--4----------2--5------5----4-------|
|--3--2-------------3------3----2-------|
|---------------------------------------|
|-------0-0-0-0-------0-0----0----0-0-0-|
|
|  S  S S S S S  S  S S S  S S  S S S S
|---------------------------------------|
|---------------------------------------|
|---------------14----------------------|
|-15-14---------14-15-----15---14-------|
|-15-14---------12-15-----15---14-------|
|-13-12-0-0-0-0----13-0-0-13-0-12-0-0-0-|


  Gtrs II, III
  E. S +E  E Q  E E   E S S S S S S S S S S S S S S   E. S +E  E Q  Q
|-------------------|-----------5-------------------|------------------|
|-------------------|-----------5-6-----6---5-------|------------------|
|-2--4-(4)-5-4--2-4-|-4---------2-5-----5---4-------|-2--4-(4)-5-4--2--|
|-0--2-(2)-3-2--0-2-|-2-----------3-----3---2-------|-0--2-(2)-3-2--0--|
|-0--2-(2)-3-2--0-2-|-2-----------------------------|-0--2-(2)-3-2--0--|
|-------------------|---0-0-0-0-----0-0---0---0-0-0-|------------------|


  E S S S S S S S S S S S S S S   E. S +E  E Q  Q
|-----------5-------------------|------------------|
|-----------5-6-----6---5-------|------------------|
|-4---------2-5-----5---4-------|-2--4-(4)-5-4--2--|
|-2-----------3-----3---2-------|-0--2-(2)-3-2--0--|
|-2-----------------------------|-0--2-(2)-3-2--0--|
|---0-0-0-0-----0-0---0---0-0-0-|------------------|


  E S S S S S S S S S S S S S S   E. S +E  E Q  Q
|-----------5-------------------|------------------|
|-----------5-6-----6---5-------|------------------|
|-4---------2-5-----5---4-------|-2--4-(4)-5-4--2--|
|-2-----------3-----3---2-------|-0--2-(2)-3-2--0--|
|-2-----------------------------|-0--2-(2)-3-2--0--|
|---0-0-0-0-----0-0---0---0-0-0-|------------------|


 1 Verse
  Gtr II
  S S S S S S S S S S S S S S S S   S S S S S S S S S S S S S S S S
|---------------------------------|---------------------------------|
|---------------------------------|---------------------------------|
|---------------------------------|---------------------------------|
|---------2-2-2-2---------2-2-2-2-|---------2-2-2-2---------2-2-2-2-|
|-3-3-3-3---------3-3-3-3---------|---------------------------------|
|---------------------------------|-0-0-0-0---------0-0-0-0---------|
|
| Gtr III
| S S S S S S S S S S S S S S S S   S S S S S S S S S S S S S S S S
|---------------------------------|---------------------------------|
|---------------------------------|---------------------------------|
|---------0-0-0-0---------0-0-0-0-|---------------------------------|
|-2-2-2-2---------2-2-2-2---------|---------5-5-5-5---------5-5-5-5-|
|---------------------------------|-3-3-3-3---------3-3-3-3---------|
|---------------------------------|---------------------------------|


  S S S S S S S S S S S S S S S S   S S S S S S S S S S S S S S S S
|---------------------------------|---------------------------------|
|---------------------------------|---------------------------------|
|---------------------------------|---------------------------------|
|---------2-2-2-2---------2-2-2-2-|---------2-2-2-2---------2-2-2-2-|
|-3-3-3-3---------3-3-3-3---------|---------------------------------|
|---------------------------------|-0-0-0-0---------0-0-0-0---------|
|
| S S S S S S S S S S S S S S S S   S S S S S S S S S S S S S S S S
|---------------------------------|---------------------------------|
|---------------------------------|---------------------------------|
|---------------------------------|---------------------------------|
|---------5-5-5-5---------5-5-5-5-|---------5-5-5-5---------5-5-5-5-|
|-7-7-7-7---------7-7-7-7---------|-3-3-3-3---------3-3-3-3---------|
|---------------------------------|---------------------------------|


  S S S S S S S S S S S S S S S S   S S S S S S S S S S S S S S S S
|---------------------------------|---------------------------------|
|---------------------------------|---------------------------------|
|---------------------------------|---------------------------------|
|---------2-2-2-2---------2-2-2-2-|---------2-2-2-2---------2-2-2-2-|
|-3-3-3-3---------3-3-3-3---------|---------------------------------|
|---------------------------------|-0-0-0-0---------0-0-0-0---------|
|
| S S S S S S S S S S S S S S S S   S S S S S S S S S S S S S S S S
|---------------------------------|---------------------------------|
|---------------------------------|---------------------------------|
|---------------------------------|---------------------------------|
|---------5-5-5-5---------5-5-5-5-|---------5-5-5-5---------5-5-5-5-|
|-7-7-7-7---------7-7-7-7---------|-3-3-3-3---------3-3-3-3---------|
|---------------------------------|---------------------------------|


  Gtr I
  W                                 H               Q        S  S  S  S
|---------------------------------|-------------------------------------|
|---------------------------------|-------------------------14-14-------|
|---------------------------------|-------------------------------15-15-|
|---------------------------------|-------------------------------------|
|---------------------------------|-------------------------------------|
|---------------------------------|-------------------------------------|
|
| Gtr II
| S S S S S S S S S S S S S S S S   S S S S S S S S S S S S  S  S  S  S
|---------------------------------|-------------------------------------|
|---------------------------------|-------------------------------------|
|---------------------------------|-------------------------------------|
|---------2-2-2-2---------2-2-2-2-|---------2-2-2-2----------2--2--2--2-|
|-3-3-3-3---------3-3-3-3---------|-------------------------------------|
|---------------------------------|-0-0-0-0---------0-0-0-0-------------|
|
| Gtr III
| S S S S S S S S S S S S S S S S   S S S S S S S S S S S S  S  S  S  S
|---------------------------------|-------------------------------------|
|---------------------------------|-------------------------------------|
|---------------------------------|-------------------------------------|
|---------5-5-5-5---------5-5-5-5-|---------5-5-5-5----------5--5--5--5-|
|-7-7-7-7---------7-7-7-7---------|-3-3-3-3---------3-3-3-3-------------|
|---------------------------------|-------------------------------------|


   ~~~~~
   W             W
|--------------|---------------------------------|
|-15b16--------|---------------------------------|
|--------------|---------------------------------|
|--------------|---------------------------------|
|--------------|---------------------------------|
|--------------|---------------------------------|
|
|  W             S S S S S S S S S S S S S S S S
|--------------|---------------------------------|
|--3-----------|---------------------------------|
|--2-----------|---------------------------------|
|--0-----------|---------2-2-2-2---------2-2-2-2-|
|--------------|-3-3-3-3---------3-3-3-3---------|
|--------------|---------------------------------|
|
|  W             S S S S S S S S S S S S S S S S
|--------------|---------------------------------|
|--------------|---------------------------------|
|--7-----------|---------------------------------|
|--7-----------|---------5-5-5-5---------5-5-5-5-|
|--5-----------|-7-7-7-7---------7-7-7-7---------|
|--------------|---------------------------------|


  Gtr II
  S S S S S S S S S S S S S S S S   S S S S S S S S S S S S S S S S
|---------------------------------|---------------------------------|
|---------------------------------|---------------------------------|
|---------------------------------|---------------------------------|
|---------2-2-2-2---------2-2-2-2-|---------2-2-2-2---------2-2-2-2-|
|---------------------------------|-3-3-3-3---------3-3-3-3---------|
|-0-0-0-0---------0-0-0-0---------|---------------------------------|
|
| Gtr III
| S S S S S S S S S S S S S S S S   S S S S S S S S S S S S S S S S
|---------------------------------|---------------------------------|
|---------------------------------|---------------------------------|
|---------------------------------|---------------------------------|
|---------5-5-5-5---------5-5-5-5-|---------5-5-5-5---------5-5-5-5-|
|-3-3-3-3---------3-3-3-3---------|-7-7-7-7---------7-7-7-7---------|
|---------------------------------|---------------------------------|


  S S S S S S S S S S S S S S S S   S S S S S S S S S S S S S S S S
|---------------------------------|---------------------------------|
|---------------------------------|---------------------------------|
|---------------------------------|---------------------------------|
|---------2-2-2-2---------2-2-2-2-|---------2-2-2-2---------2-2-2-2-|
|---------------------------------|-3-3-3-3---------3-3-3-3---------|
|-0-0-0-0---------0-0-0-0---------|---------------------------------|
|
| S S S S S S S S S S S S S S S S   S S S S S S S S S S S S S S S S
|---------------------------------|---------------------------------|
|---------------------------------|---------------------------------|
|---------------------------------|---------------------------------|
|---------5-5-5-5---------5-5-5-5-|---------5-5-5-5---------5-5-5-5-|
|-3-3-3-3---------3-3-3-3---------|-7-7-7-7---------7-7-7-7---------|
|---------------------------------|---------------------------------|


  S S S S S S S S S S S S S S S S   S S S S S S S S S S S S S S S S
|---------------------------------|---------------------------------|
|---------------------------------|---------------------------------|
|---------------------------------|---------------------------------|
|---------2-2-2-2---------2-2-2-2-|---------2-2-2-2---------2-2-2-2-|
|---------------------------------|-3-3-3-3---------3-3-3-3---------|
|-0-0-0-0---------0-0-0-0---------|---------------------------------|
|
| S S S S S S S S S S S S S S S S   S S S S S S S S S S S S S S S S
|---------------------------------|---------------------------------|
|---------------------------------|---------------------------------|
|---------------------------------|---------------------------------|
|---------5-5-5-5---------5-5-5-5-|---------5-5-5-5---------5-5-5-5-|
|-3-3-3-3---------3-3-3-3---------|-7-7-7-7---------7-7-7-7---------|
|---------------------------------|---------------------------------|


  Gtr I
                                         ~~~~~
  H               Q        S  S  S  S    W
|-------------------------------------|----------|
|-------------------------14-14-------|-15b16----|
|-------------------------------15-15-|----------|
|-------------------------------------|----------|
|-------------------------------------|----------|
|-------------------------------------|----------|
|
| Gtr II
| S S S S S S S S S S S S  S  S  S  S    W
|-------------------------------------|----------|
|-------------------------------------|--3-------|
|-------------------------------------|--2-------|
|---------2-2-2-2----------2--2--2--2-|--0-------|
|-------------------------------------|----------|
|-0-0-0-0---------0-0-0-0-------------|----------|
|
| Gtr III
| S S S S S S S S S S S S  S  S  S  S    W
|-------------------------------------|----------|
|-------------------------------------|----------|
|-------------------------------------|--7-------|
|---------5-5-5-5----------5--5--5--5-|--7-------|
|-3-3-3-3---------3-3-3-3-------------|--5-------|
|-------------------------------------|----------|


 Chorus
   S  S  S  S  S  S  S  S  S  S  S  S  S  S  S  S
|-------------------------------------------------|
|-------------------------------------------------|
|-------------------------------------------------|
|-16-16-16-16-16-16-16-16-16-16-16-16-16-16-16-16-|
|-------------------------------------------------|
|-------------------------------------------------|
|
|  W
|-------------------------------------------------|
|-------------------------------------------------|
|-------------------------------------------------|
|--5----------------------------------------------|
|--5----------------------------------------------|
|--3----------------------------------------------|
|
|  S  S  S  S  S  S  S  S  S  S  S  S  S  S  S  S
|-------------------------------------------------|
|-------------------------------------------------|
|-------------------------------------------------|
|-------------------------------------------------|
|-------------------------------------------------|
|--3--3--3--3--3--3--3--3--3--3--3--3--3--3--3--3-|


   S   S  S  S  S  S  S  S  S  S  S  S  S  S  S  S
|--------------------------------------------------|
|--------------------------------------------------|
|--------------------------------------------------|
|--------------------18-18-18-18-18-18-------------|
|-16--16-16-16-16-16-------------------20-20-20-20-|
|--------------------------------------------------|
|
|  H.                                   Q
|---------------------------------------2----------|
|--3------------------------------------2----------|
|--2-----------------------------------------------|
|--0------------------------------------4----------|
|--------------------------------------------------|
|--------------------------------------------------|
|
|  S   S  S  S  S  S  S  S  S  S  S  S  S  S  S  S
|--------------------------------------------------|
|--------------------------------------------------|
|--------------------------------------------------|
|--------------------------------------------------|
|--5---5--5--5--5--5--5--5--5--5--5--5-------------|
|---------------------------------------2--2--2--2-|


   S  S  S  S  S  S  S  S  S  S  S  S  S  S  S  S
|-------------------------------------------------|
|-------------------------------------------------|
|-------------------------------------------------|
|-------------------------------------------------|
|-21-21-21-21-21-21-21-21-21-21-21-21-21-21-21-21-|
|-------------------------------------------------|
|
|  W
|-------------------------------------------------|
|--5----------------------------------------------|
|--4----------------------------------------------|
|--2----------------------------------------------|
|-------------------------------------------------|
|-------------------------------------------------|
|
|  S  S  S  S  S  S  S  S  S  S  S  S  S  S  S  S
|-------------------------------------------------|
|-------------------------------------------------|
|-------------------------------------------------|
|--2--2--2--2--2--2--2--2--2--2--2--2--2--2--2--2-|
|-------------------------------------------------|
|-------------------------------------------------|


   S   S  S  S  S  S  S  S  S   S  S  S  S  S  S  S
|---------------------------------------------------|
|---------------------------------------------------|
|---------------------------------------------------|
|---------------------------------------------------|
|-20--20-20-20-20-20-21-21-21--21-21-21-23-23-23-23-|
|---------------------------------------------------|
|
|  Q.                 E    +Q            Q
|---------------------------------------------------|
|---------------------3----(3)-----------5----------|
|--6------------------0----(0)-----------2----------|
|--4------------------------------------------------|
|---------------------------------------------------|
|---------------------------------------------------|
|
|  S   S  S  S  S  S  S  S  S   S  S  S  S  S  S  S
|---------------------------------------------------|
|---------------------------------------------------|
|---------------------------------------------------|
|---------------------------------------------------|
|----------------------------------------0--0--0--0-|
|--2---2--2--2--2--2--3--3--3---3--3--3-------------|


   S  S  S  S  S  S  S  S  S  S  S  S  S  S  S  S
|-------------------------------------------------|
|-------------------------------------------------|
|-------------------------------------------------|
|-------------------------------------------------|
|-------------------------------------------------|
|-23-23-23-23-23-23-23-23-23-23-23-23-23-23-23-23-|
|
|  W
|-------------------------------------------------|
|-------------------------------------------------|
|--5----------------------------------------------|
|--5----------------------------------------------|
|--3----------------------------------------------|
|-------------------------------------------------|
|
|  S  S  S  S  S  S  S  S  S  S  S  S  S  S  S  S
|-------------------------------------------------|
|-------------------------------------------------|
|-------------------------------------------------|
|-------------------------------------------------|
|--3--3--3--3--3--3--3--3--3--3--3--3--3--3--3--3-|
|-------------------------------------------------|


   S  S  S  S  S  S  S  S  S  S  S  S  S  S  S  S
|-------------------------------------------------|
|-------------------------------------------------|
|-------------------------------------------------|
|-------------------------------------------------|
|-------------------20-20-20-20-20-20-21-21-21-21-|
|-23-23-23-23-23-23-------------------------------|
|
|  Q           Q           Q           Q
|-------------------------------------------------|
|-------------------------------------------------|
|-------------------------------------------------|
|--5-----------4-----------2-----------0----------|
|-------------------------------------------------|
|-------------------------------------------------|
|
|  Q           Q           Q           Q
|-------------------------------------------------|
|-------------------------------------------------|
|-------------------------------------------------|
|--5-----------4-----------2-----------0----------|
|-------------------------------------------------|
|-------------------------------------------------|


   S  S  S  S  S  S  S  S  S  S  S  S  S  S  S  S
|-------------------------------------------------|
|-------------------------------------------------|
|-------------------------------------------------|
|-------------------------------------------------|
|-20-20-20-20-20-20-21-21-21-21-21-21-23-23-23-23-|
|-------------------------------------------------|
|
|  E     S  S  S  S  S  S  S  S  S  S  S  S  S  S
|-------------------------------------------------|
|--3----------------------------------------------|
|--2----------------------------------------------|
|--0-----0--0--0--0--0--0--0--0--0--0--0--0--0--0-|
|-------------------------------------------------|
|-------------------------------------------------|
|
|  S  S  S  S  S  S  S  S  S  S  S  S  S  S  S  S
|-------------------------------------------------|
|-------------------------------------------------|
|-------------------------------------------------|
|--4--4--4--4--4--4--5--5--5--5--5--5--7--7--7--7-|
|-------------------------------------------------|
|-------------------------------------------------|


   S  S  S  S  S  S  S  S  S  S  E    Q
|------------------------------------------------|
|------------------------------------------------|
|-------------------------------20---------------|
|-------------20-20-21-21-23-23------------------|
|-21-21-23-23------------------------------------|
|------------------------------------------------|
|
|  S  S  S  S  S  S  S  S  S  S  S S  S  S  S  S
|------------------------------------------------|
|------------------------------------------------|
|------------------------------------------------|
|--0--0--0--0--0--0--0--0--0--0--0-0--0--0--0--0-|
|------------------------------------------------|
|------------------------------------------------|
|
|  S  S  S  S  S  S  S  S  S  S  E    S  S  S  S
|------------------------------------------------|
|------------------------------------------------|
|------------------------------------------------|
|--5--5--7--7--9--9-10-10-12-12-14---14-14-14-14-|
|------------------------------------------------|
|------------------------------------------------|


   S  S  S  S  S  S  S  S  S  S  S  S  S  S  S  S
|-------------------------------------------------|
|-------------------------------------------------|
|-------------------------------------------------|
|-------------------------------------------------|
|-21-21-21-21-21-21-21-21-21-21-21-21-21-21-21-21-|
|-------------------------------------------------|
|
|  W
|-------------------------------------------------|
|-------------------------------------------------|
|-------------------------------------------------|
|--5----------------------------------------------|
|--5----------------------------------------------|
|--3----------------------------------------------|
|
|  S  S  S  S  S  S  S  S  S  S  S  S  S  S  S  S
|-------------------------------------------------|
|-------------------------------------------------|
|-------------------------------------------------|
|-------------------------------------------------|
|-------------------------------------------------|
|--3--3--3--3--3--3--3--3--3--3--3--3--3--3--3--3-|


   S   S  S  S  S  S  S  S  S  S  S  S  S  S  S  S
|--------------------------------------------------|
|--------------------------------------------------|
|--------------------------------------------------|
|--------------------------------------------------|
|--------------------23-23-23-23-23-23-20-20-20-20-|
|-21--21-21-21-21-21-------------------------------|
|
|  H.                                   Q
|---------------------------------------2----------|
|--3------------------------------------2----------|
|--2-----------------------------------------------|
|--0------------------------------------4----------|
|--------------------------------------------------|
|--------------------------------------------------|
|
|  S   S  S  S  S  S  S  S  S  S  S  S  S  S  S  S
|--------------------------------------------------|
|--------------------------------------------------|
|--------------------------------------------------|
|--------------------------------------------------|
|--5---5--5--5--5--5--5--5--5--5--5--5-------------|
|---------------------------------------2--2--2--2-|


   S  S  S  S  S  S  S  S  S  S  S  S  S  S  S  S
|-------------------------------------------------|
|-------------------------------------------------|
|-------------------------------------------------|
|-------------------------------------------------|
|-21-21-21-21-21-21-21-21-21-21-21-21-21-21-21-21-|
|-------------------------------------------------|
|
|  W
|-------------------------------------------------|
|--5----------------------------------------------|
|--4----------------------------------------------|
|--2----------------------------------------------|
|-------------------------------------------------|
|-------------------------------------------------|
|
|  S  S  S  S  S  S  S  S  S  S  S  S  S  S  S  S
|-------------------------------------------------|
|-------------------------------------------------|
|-------------------------------------------------|
|--2--2--2--2--2--2--2--2--2--2--2--2--2--2--2--2-|
|-------------------------------------------------|
|-------------------------------------------------|


   S   S  S  S  S  S  S  S  S   S  S  S  S  S  S  S
|---------------------------------------------------|
|---------------------------------------------------|
|---------------------------------------------------|
|---------------------------------------------------|
|-20--20-20-20-20-20-21-21-21--21-21-21-23-23-23-23-|
|---------------------------------------------------|
|
|  Q.                 E    +Q            Q
|---------------------------------------------------|
|---------------------3----(3)-----------5----------|
|--6------------------0----(0)-----------2----------|
|--4------------------------------------------------|
|---------------------------------------------------|
|---------------------------------------------------|
|
|  S   S  S  S  S  S  S  S  S   S  S  S  S  S  S  S
|---------------------------------------------------|
|---------------------------------------------------|
|---------------------------------------------------|
|---------------------------------------------------|
|----------------------------------------0--0--0--0-|
|--2---2--2--2--2--2--3--3--3---3--3--3-------------|


   S  S  S  S  S  S  S  S  S  S  S  S  S  S  S  S
|-------------------------------------------------|
|-------------------------------------------------|
|-------------------------------------------------|
|-------------------------------------------------|
|-------------------------------------------------|
|-23-23-23-23-23-23-23-23-23-23-23-23-23-23-23-23-|
|
|  W
|-------------------------------------------------|
|-------------------------------------------------|
|--5----------------------------------------------|
|--5----------------------------------------------|
|--3----------------------------------------------|
|-------------------------------------------------|
|
|  S  S  S  S  S  S  S  S  S  S  S  S  S  S  S  S
|-------------------------------------------------|
|-------------------------------------------------|
|-------------------------------------------------|
|-------------------------------------------------|
|--3--3--3--3--3--3--3--3--3--3--3--3--3--3--3--3-|
|-------------------------------------------------|


   S  S  S  S  S  S  S  S  S  S  S  S  S  S  S  S
|-------------------------------------------------|
|-------------------------------------------------|
|-------------------------------------------------|
|-------------------------------------------------|
|-------------------20-20-20-20-20-20-21-21-21-21-|
|-23-23-23-23-23-23-------------------------------|
|
|  Q           Q           Q           Q
|-------------------------------------------------|
|-------------------------------------------------|
|-------------------------------------------------|
|--5-----------4-----------2-----------0----------|
|-------------------------------------------------|
|-------------------------------------------------|
|
|  Q           Q           Q           Q
|-------------------------------------------------|
|-------------------------------------------------|
|-------------------------------------------------|
|--5-----------4-----------2-----------0----------|
|-------------------------------------------------|
|-------------------------------------------------|


   S  S  S  S  S  S  S  S  S  S  S  S  S  S  S  S
|-------------------------------------------------|
|-------------------------------------------------|
|-------------------------------------------------|
|-------------------------------------------------|
|-20-20-20-20-20-20-21-21-21-21-21-21-23-23-23-23-|
|-------------------------------------------------|
|
|  E     S  S  S  S  S  S  S  S  S  S  S  S  S  S
|-------------------------------------------------|
|--3----------------------------------------------|
|--2----------------------------------------------|
|--0-----0--0--0--0--0--0--0--0--0--0--0--0--0--0-|
|-------------------------------------------------|
|-------------------------------------------------|
|
|  S  S  S  S  S  S  S  S  S  S  S  S  S  S  S  S
|-------------------------------------------------|
|-------------------------------------------------|
|-------------------------------------------------|
|--4--4--4--4--4--4--5--5--5--5--5--5--7--7--7--7-|
|-------------------------------------------------|
|-------------------------------------------------|


   S  S  S  S  S  S  S  S  S  S  E    Q
|------------------------------------------------|
|------------------------------------------------|
|-------------------------------20---------------|
|-------------20-20-21-21-23-23------------------|
|-21-21-23-23------------------------------------|
|------------------------------------------------|
|
|  S  S  S  S  S  S  S  S  S  S  S S  S  S  S  S
|------------------------------------------------|
|------------------------------------------------|
|------------------------------------------------|
|--0--0--0--0--0--0--0--0--0--0--0-0--0--0--0--0-|
|------------------------------------------------|
|------------------------------------------------|
|
|  S  S  S  S  S  S  S  S  S  S  E    S  S  S  S
|------------------------------------------------|
|------------------------------------------------|
|------------------------------------------------|
|--5--5--7--7--9--9-10-10-12-12-14---14-14-14-14-|
|------------------------------------------------|
|------------------------------------------------|


 Bridge
  Gtrs II, III
  E S S S S S S S S S S S S S S   E. S +E  E Q  Q
|-----------5-------------------|------------------|
|-----------5-6-----6---5-------|------------------|
|-4---------2-5-----5---4-------|-2--4-(4)-5-4--2--|
|-2-----------3-----3---2-------|-0--2-(2)-3-2--0--|
|-2-----------------------------|-0--2-(2)-3-2--0--|
|---0-0-0-0-----0-0---0---0-0-0-|------------------|


  E S S S S S S S S S S S S S S   E. S +E  E Q  Q
|-----------5-------------------|------------------|
|-----------5-6-----6---5-------|------------------|
|-4---------2-5-----5---4-------|-2--4-(4)-5-4--2--|
|-2-----------3-----3---2-------|-0--2-(2)-3-2--0--|
|-2-----------------------------|-0--2-(2)-3-2--0--|
|---0-0-0-0-----0-0---0---0-0-0-|------------------|


 2 Verse
  Gtr II
  S S S S S S S S S S S S S S S S   S S S S S S S S S S S S S S S S
|---------------------------------|---------------------------------|
|---------------------------------|---------------------------------|
|---------------------------------|---------------------------------|
|---------2-2-2-2---------2-2-2-2-|---------2-2-2-2---------2-2-2-2-|
|-3-3-3-3---------3-3-3-3---------|---------------------------------|
|---------------------------------|-0-0-0-0---------0-0-0-0---------|
|
| Gtr III
| S S S S S S S S S S S S S S S S   S S S S S S S S S S S S S S S S
|---------------------------------|---------------------------------|
|---------------------------------|---------------------------------|
|---------0-0-0-0---------0-0-0-0-|---------------------------------|
|-2-2-2-2---------2-2-2-2---------|---------5-5-5-5---------5-5-5-5-|
|---------------------------------|-3-3-3-3---------3-3-3-3---------|
|---------------------------------|---------------------------------|


  S S S S S S S S S S S S S S S S   S S S S S S S S S S S S S S S S
|---------------------------------|---------------------------------|
|---------------------------------|---------------------------------|
|---------------------------------|---------------------------------|
|---------2-2-2-2---------2-2-2-2-|---------2-2-2-2---------2-2-2-2-|
|-3-3-3-3---------3-3-3-3---------|---------------------------------|
|---------------------------------|-0-0-0-0---------0-0-0-0---------|
|
| S S S S S S S S S S S S S S S S   S S S S S S S S S S S S S S S S
|---------------------------------|---------------------------------|
|---------------------------------|---------------------------------|
|---------------------------------|---------------------------------|
|---------5-5-5-5---------5-5-5-5-|---------5-5-5-5---------5-5-5-5-|
|-7-7-7-7---------7-7-7-7---------|-3-3-3-3---------3-3-3-3---------|
|---------------------------------|---------------------------------|


  S S S S S S S S S S S S S S S S   S S S S S S S S S S S S S S S S
|---------------------------------|---------------------------------|
|---------------------------------|---------------------------------|
|---------------------------------|---------------------------------|
|---------2-2-2-2---------2-2-2-2-|---------2-2-2-2---------2-2-2-2-|
|-3-3-3-3---------3-3-3-3---------|---------------------------------|
|---------------------------------|-0-0-0-0---------0-0-0-0---------|
|
| S S S S S S S S S S S S S S S S   S S S S S S S S S S S S S S S S
|---------------------------------|---------------------------------|
|---------------------------------|---------------------------------|
|---------------------------------|---------------------------------|
|---------5-5-5-5---------5-5-5-5-|---------5-5-5-5---------5-5-5-5-|
|-7-7-7-7---------7-7-7-7---------|-3-3-3-3---------3-3-3-3---------|
|---------------------------------|---------------------------------|


  Gtr I
  W                                 H               Q        S  S  S  S
|---------------------------------|-------------------------------------|
|---------------------------------|-------------------------------------|
|---------------------------------|-------------------------18-18-------|
|---------------------------------|-------------------------------20-20-|
|---------------------------------|-------------------------------------|
|---------------------------------|-------------------------------------|
|
| Gtr II
| S S S S S S S S S S S S S S S S   S S S S S S S S S S S S  S  S  S  S
|---------------------------------|-------------------------------------|
|---------------------------------|-------------------------------------|
|---------------------------------|-------------------------------------|
|---------2-2-2-2---------2-2-2-2-|---------2-2-2-2----------2--2--2--2-|
|-3-3-3-3---------3-3-3-3---------|-------------------------------------|
|---------------------------------|-0-0-0-0---------0-0-0-0-------------|
|
| Gtr III
| S S S S S S S S S S S S S S S S   S S S S S S S S S S S S  S  S  S  S
|---------------------------------|-------------------------------------|
|---------------------------------|-------------------------------------|
|---------------------------------|-------------------------------------|
|---------5-5-5-5---------5-5-5-5-|---------5-5-5-5----------5--5--5--5-|
|-7-7-7-7---------7-7-7-7---------|-3-3-3-3---------3-3-3-3-------------|
|---------------------------------|-------------------------------------|


             Chorus
   W           S  S  S  S  S  S  S  S  S  S  S  S  S  S  S  S
|-----------|-------------------------------------------------|
|-----------|-------------------------------------------------|
|-18--------|-------------------------------------------------|
|-----------|-16-16-16-16-16-16-16-16-16-16-16-16-16-16-16-16-|
|-----------|-------------------------------------------------|
|-----------|-------------------------------------------------|
|
|  W           W
|-----------|-------------------------------------------------|
|--3--------|-------------------------------------------------|
|--2--------|-------------------------------------------------|
|--0--------|--5----------------------------------------------|
|-----------|--5----------------------------------------------|
|-----------|--3----------------------------------------------|
|
|  W           S  S  S  S  S  S  S  S  S  S  S  S  S  S  S  S
|-----------|-------------------------------------------------|
|-----------|-------------------------------------------------|
|--7--------|-------------------------------------------------|
|--7--------|-------------------------------------------------|
|--5--------|-------------------------------------------------|
|-----------|--3--3--3--3--3--3--3--3--3--3--3--3--3--3--3--3-|


   S   S  S  S  S  S  S  S  S  S  S  S  S  S  S  S
|--------------------------------------------------|
|--------------------------------------------------|
|--------------------------------------------------|
|--------------------18-18-18-18-18-18-------------|
|-16--16-16-16-16-16-------------------20-20-20-20-|
|--------------------------------------------------|
|
|  H.                                   Q
|---------------------------------------2----------|
|--3------------------------------------2----------|
|--2-----------------------------------------------|
|--0------------------------------------4----------|
|--------------------------------------------------|
|--------------------------------------------------|
|
|  S   S  S  S  S  S  S  S  S  S  S  S  S  S  S  S
|--------------------------------------------------|
|--------------------------------------------------|
|--------------------------------------------------|
|--------------------------------------------------|
|--5---5--5--5--5--5--5--5--5--5--5--5-------------|
|---------------------------------------2--2--2--2-|


   S  S  S  S  S  S  S  S  S  S  S  S  S  S  S  S
|-------------------------------------------------|
|-------------------------------------------------|
|-------------------------------------------------|
|-------------------------------------------------|
|-21-21-21-21-21-21-21-21-21-21-21-21-21-21-21-21-|
|-------------------------------------------------|
|
|  W
|-------------------------------------------------|
|--5----------------------------------------------|
|--4----------------------------------------------|
|--2----------------------------------------------|
|-------------------------------------------------|
|-------------------------------------------------|
|
|  S  S  S  S  S  S  S  S  S  S  S  S  S  S  S  S
|-------------------------------------------------|
|-------------------------------------------------|
|-------------------------------------------------|
|--2--2--2--2--2--2--2--2--2--2--2--2--2--2--2--2-|
|-------------------------------------------------|
|-------------------------------------------------|


   S   S  S  S  S  S  S  S  S   S  S  S  S  S  S  S
|---------------------------------------------------|
|---------------------------------------------------|
|---------------------------------------------------|
|---------------------------------------------------|
|-20--20-20-20-20-20-21-21-21--21-21-21-23-23-23-23-|
|---------------------------------------------------|
|
|  Q.                 E    +Q            Q
|---------------------------------------------------|
|---------------------3----(3)-----------5----------|
|--6------------------0----(0)-----------2----------|
|--4------------------------------------------------|
|---------------------------------------------------|
|---------------------------------------------------|
|
|  S   S  S  S  S  S  S  S  S   S  S  S  S  S  S  S
|---------------------------------------------------|
|---------------------------------------------------|
|---------------------------------------------------|
|---------------------------------------------------|
|----------------------------------------0--0--0--0-|
|--2---2--2--2--2--2--3--3--3---3--3--3-------------|


   S  S  S  S  S  S  S  S  S  S  S  S  S  S  S  S
|-------------------------------------------------|
|-------------------------------------------------|
|-------------------------------------------------|
|-------------------------------------------------|
|-------------------------------------------------|
|-23-23-23-23-23-23-23-23-23-23-23-23-23-23-23-23-|
|
|  W
|-------------------------------------------------|
|-------------------------------------------------|
|--5----------------------------------------------|
|--5----------------------------------------------|
|--3----------------------------------------------|
|-------------------------------------------------|
|
|  S  S  S  S  S  S  S  S  S  S  S  S  S  S  S  S
|-------------------------------------------------|
|-------------------------------------------------|
|-------------------------------------------------|
|-------------------------------------------------|
|--3--3--3--3--3--3--3--3--3--3--3--3--3--3--3--3-|
|-------------------------------------------------|


   S  S  S  S  S  S  S  S  S  S  S  S  S  S  S  S
|-------------------------------------------------|
|-------------------------------------------------|
|-------------------------------------------------|
|-------------------------------------------------|
|-------------------20-20-20-20-20-20-21-21-21-21-|
|-23-23-23-23-23-23-------------------------------|
|
|  Q           Q           Q           Q
|-------------------------------------------------|
|-------------------------------------------------|
|-------------------------------------------------|
|--5-----------4-----------2-----------0----------|
|-------------------------------------------------|
|-------------------------------------------------|
|
|  Q           Q           Q           Q
|-------------------------------------------------|
|-------------------------------------------------|
|-------------------------------------------------|
|--5-----------4-----------2-----------0----------|
|-------------------------------------------------|
|-------------------------------------------------|


   S  S  S  S  S  S  S  S  S  S  S  S  S  S  S  S
|-------------------------------------------------|
|-------------------------------------------------|
|-------------------------------------------------|
|-------------------------------------------------|
|-20-20-20-20-20-20-21-21-21-21-21-21-23-23-23-23-|
|-------------------------------------------------|
|
|  E     S  S  S  S  S  S  S  S  S  S  S  S  S  S
|-------------------------------------------------|
|--3----------------------------------------------|
|--2----------------------------------------------|
|--0-----0--0--0--0--0--0--0--0--0--0--0--0--0--0-|
|-------------------------------------------------|
|-------------------------------------------------|
|
|  S  S  S  S  S  S  S  S  S  S  S  S  S  S  S  S
|-------------------------------------------------|
|-------------------------------------------------|
|-------------------------------------------------|
|--4--4--4--4--4--4--5--5--5--5--5--5--7--7--7--7-|
|-------------------------------------------------|
|-------------------------------------------------|


   S  S  S  S  S  S  S  S  S  S  E    Q
|------------------------------------------------|
|------------------------------------------------|
|-------------------------------20---------------|
|-------------20-20-21-21-23-23------------------|
|-21-21-23-23------------------------------------|
|------------------------------------------------|
|
|  S  S  S  S  S  S  S  S  S  S  S S  S  S  S  S
|------------------------------------------------|
|------------------------------------------------|
|------------------------------------------------|
|--0--0--0--0--0--0--0--0--0--0--0-0--0--0--0--0-|
|------------------------------------------------|
|------------------------------------------------|
|
|  S  S  S  S  S  S  S  S  S  S  E    S  S  S  S
|------------------------------------------------|
|------------------------------------------------|
|------------------------------------------------|
|--5--5--7--7--9--9-10-10-12-12-14---14-14-14-14-|
|------------------------------------------------|
|------------------------------------------------|


   S  S  S  S  S  S  S  S  S  S  S  S  S  S  S  S
|-------------------------------------------------|
|-------------------------------------------------|
|-------------------------------------------------|
|-------------------------------------------------|
|-21-21-21-21-21-21-21-21-21-21-21-21-21-21-21-21-|
|-------------------------------------------------|
|
|  W
|-------------------------------------------------|
|-------------------------------------------------|
|-------------------------------------------------|
|--5----------------------------------------------|
|--5----------------------------------------------|
|--3----------------------------------------------|
|
|  S  S  S  S  S  S  S  S  S  S  S  S  S  S  S  S
|-------------------------------------------------|
|-------------------------------------------------|
|-------------------------------------------------|
|-------------------------------------------------|
|-------------------------------------------------|
|--3--3--3--3--3--3--3--3--3--3--3--3--3--3--3--3-|


   S   S  S  S  S  S  S  S  S  S  S  S  S  S  S  S
|--------------------------------------------------|
|--------------------------------------------------|
|--------------------------------------------------|
|--------------------------------------------------|
|--------------------23-23-23-23-23-23-20-20-20-20-|
|-21--21-21-21-21-21-------------------------------|
|
|  H.                                   Q
|---------------------------------------2----------|
|--3------------------------------------2----------|
|--2-----------------------------------------------|
|--0------------------------------------4----------|
|--------------------------------------------------|
|--------------------------------------------------|
|
|  S   S  S  S  S  S  S  S  S  S  S  S  S  S  S  S
|--------------------------------------------------|
|--------------------------------------------------|
|--------------------------------------------------|
|--------------------------------------------------|
|--5---5--5--5--5--5--5--5--5--5--5--5-------------|
|---------------------------------------2--2--2--2-|


   S  S  S  S  S  S  S  S  S  S  S  S  S  S  S  S
|-------------------------------------------------|
|-------------------------------------------------|
|-------------------------------------------------|
|-------------------------------------------------|
|-21-21-21-21-21-21-21-21-21-21-21-21-21-21-21-21-|
|-------------------------------------------------|
|
|  W
|-------------------------------------------------|
|--5----------------------------------------------|
|--4----------------------------------------------|
|--2----------------------------------------------|
|-------------------------------------------------|
|-------------------------------------------------|
|
|  S  S  S  S  S  S  S  S  S  S  S  S  S  S  S  S
|-------------------------------------------------|
|-------------------------------------------------|
|-------------------------------------------------|
|--2--2--2--2--2--2--2--2--2--2--2--2--2--2--2--2-|
|-------------------------------------------------|
|-------------------------------------------------|


   S   S  S  S  S  S  S  S  S   S  S  S  S  S  S  S
|---------------------------------------------------|
|---------------------------------------------------|
|---------------------------------------------------|
|---------------------------------------------------|
|-20--20-20-20-20-20-21-21-21--21-21-21-23-23-23-23-|
|---------------------------------------------------|
|
|  Q.                 E    +Q            Q
|---------------------------------------------------|
|---------------------3----(3)-----------5----------|
|--6------------------0----(0)-----------2----------|
|--4------------------------------------------------|
|---------------------------------------------------|
|---------------------------------------------------|
|
|  S   S  S  S  S  S  S  S  S   S  S  S  S  S  S  S
|---------------------------------------------------|
|---------------------------------------------------|
|---------------------------------------------------|
|---------------------------------------------------|
|----------------------------------------0--0--0--0-|
|--2---2--2--2--2--2--3--3--3---3--3--3-------------|


   S  S  S  S  S  S  S  S  S  S  S  S  S  S  S  S
|-------------------------------------------------|
|-------------------------------------------------|
|-------------------------------------------------|
|-------------------------------------------------|
|-------------------------------------------------|
|-23-23-23-23-23-23-23-23-23-23-23-23-23-23-23-23-|
|
|  W
|-------------------------------------------------|
|-------------------------------------------------|
|--5----------------------------------------------|
|--5----------------------------------------------|
|--3----------------------------------------------|
|-------------------------------------------------|
|
|  S  S  S  S  S  S  S  S  S  S  S  S  S  S  S  S
|-------------------------------------------------|
|-------------------------------------------------|
|-------------------------------------------------|
|-------------------------------------------------|
|--3--3--3--3--3--3--3--3--3--3--3--3--3--3--3--3-|
|-------------------------------------------------|

[ Tab from: http://www.guitaretab.com/h/helloween/47451.html ]
   S  S  S  S  S  S  S  S  S  S  S  S  S  S  S  S
|-------------------------------------------------|
|-------------------------------------------------|
|-------------------------------------------------|
|-------------------------------------------------|
|-------------------20-20-20-20-20-20-21-21-21-21-|
|-23-23-23-23-23-23-------------------------------|
|
|  Q           Q           Q           Q
|-------------------------------------------------|
|-------------------------------------------------|
|-------------------------------------------------|
|--5-----------4-----------2-----------0----------|
|-------------------------------------------------|
|-------------------------------------------------|
|
|  Q           Q           Q           Q
|-------------------------------------------------|
|-------------------------------------------------|
|-------------------------------------------------|
|--5-----------4-----------2-----------0----------|
|-------------------------------------------------|
|-------------------------------------------------|


   S  S  S  S  S  S  S  S  S  S  S  S  S  S  S  S
|-------------------------------------------------|
|-------------------------------------------------|
|-------------------------------------------------|
|-------------------------------------------------|
|-20-20-20-20-20-20-21-21-21-21-21-21-23-23-23-23-|
|-------------------------------------------------|
|
|  E     S  S  S  S  S  S  S  S  S  S  S  S  S  S
|-------------------------------------------------|
|--3----------------------------------------------|
|--2----------------------------------------------|
|--0-----0--0--0--0--0--0--0--0--0--0--0--0--0--0-|
|-------------------------------------------------|
|-------------------------------------------------|
|
|  S  S  S  S  S  S  S  S  S  S  S  S  S  S  S  S
|-------------------------------------------------|
|-------------------------------------------------|
|-------------------------------------------------|
|--4--4--4--4--4--4--5--5--5--5--5--5--7--7--7--7-|
|-------------------------------------------------|
|-------------------------------------------------|


                                                  Interlude
   S  S  S  S  S  S  S  S  S  S  E    Q            W                      W
|------------------------------------------------|----------------------|------|
|------------------------------------------------|----------------------|------|
|-------------------------------20---------------|----------------------|------|
|-------------20-20-21-21-23-23------------------|----------------------|------|
|-21-21-23-23------------------------------------|----------------------|------|
|------------------------------------------------|----------------------|------|
|
|  S  S  S  S  S  S  S  S  S  S  S S  S  S  S  S   S S S S S S S S H      W
|------------------------------------------------|----------------------|------|
|------------------------------------------------|----------------------|------|
|------------------------------------------------|----------------------|------|
|--0--0--0--0--0--0--0--0--0--0--0-0--0--0--0--0-|----------------------|------|
|------------------------------------------------|-2-2---2-2---2-2------|------|
|------------------------------------------------|-0-0---0-0---0-0------|------|
|
|  S  S  S  S  S  S  S  S  S  S  E    S  S  S  S   S S S S S S S S H      W
|------------------------------------------------|----------------------|------|
|------------------------------------------------|----------------------|------|
|------------------------------------------------|----------------------|------|
|--5--5--7--7--9--9-10-10-12-12-14---14-14-14-14-|----------------------|------|
|------------------------------------------------|-2-2---2-2---2-2------|------|
|------------------------------------------------|-0-0---0-0---0-0------|------|


  Gtrs II, III
  S S S S S S S S H      W          S S S S S S S S H
|----------------------|----------|----------------------|
|----------------------|----------|----------------------|
|----------------------|----------|----------------------|
|----------------------|----------|----------------------|
|-2-2---2-2---2-2------|----------|-2-2---2-2---2-2------|
|-0-0---0-0---0-0------|----------|-0-0---0-0---0-0------|


  W          S S S S S S S S H      W
|----------|----------------------|------|
|----------|----------------------|------|
|----------|----------------------|------|
|----------|----------------------|------|
|----------|-2-2---2-2---2-2------|------|
|----------|-0-0---0-0---0-0------|------|


  S S S S S S S S H      W          S S S S S S S S H
|----------------------|----------|----------------------|
|----------------------|----------|----------------------|
|----------------------|----------|----------------------|
|----------------------|----------|----------------------|
|-2-2---2-2---2-2------|----------|-2-2---2-2---2-2------|
|-0-0---0-0---0-0------|----------|-0-0---0-0---0-0------|


  W          S S S S S S S S H      W
|----------|----------------------|------|
|----------|----------------------|------|
|----------|----------------------|------|
|----------|----------------------|------|
|----------|-2-2---2-2---2-2------|------|
|----------|-0-0---0-0---0-0------|------|


  S S S S S S S S H      S S S S S S S S H      S S S S S S S S H
|----------------------|----------------------|----------------------|
|----------------------|----------------------|----------------------|
|----------------------|----------------------|----------------------|
|----------------------|----------------------|----------------------|
|-2-2---2-2---2-2------|-2-2---2-2---2-2------|-2-2---2-2---2-2------|
|-0-0---0-0---0-0------|-0-0---0-0---0-0------|-0-0---0-0---0-0------|


  Gtr II
  S S S S S S S S H      S S S S S S S S S S S S  S  S S S
|----------------------|-3-3-----3-3-----5-5------7--7-----|
|----------------------|-----5-5-----5-5-----5-5-------5-5-|
|----------------------|-----------------------------------|
|----------------------|-----------------------------------|
|-2-2---2-2---2-2------|-----------------------------------|
|-0-0---0-0---0-0------|-----------------------------------|
|
| Gtr III
| S S S S S S S S H      S S S S S S S S S S S S  S  S S S
|----------------------|-7-7-----7-7-----8-8-----10-10-----|
|----------------------|-----8-8-----8-8-----8-8-------8-8-|
|----------------------|-----------------------------------|
|----------------------|-----------------------------------|
|-2-2---2-2---2-2------|-----------------------------------|
|-0-0---0-0---0-0------|-----------------------------------|


  S S S S S S S S S S S S  S  S S S   S S S S S S S S S S S S  S  S S S
|-3-3-----3-3-----5-5------7--7-----|-3-3-----3-3-----5-5------7--7-----|
|-----5-5-----5-5-----5-5-------5-5-|-----5-5-----5-5-----5-5-------5-5-|
|-----------------------------------|-----------------------------------|
|-----------------------------------|-----------------------------------|
|-----------------------------------|-----------------------------------|
|-----------------------------------|-----------------------------------|
|
| S S S S S S S S S S S S  S  S S S   S S S S S S S S S S S S  S  S S S
|-7-7-----7-7-----8-8-----10-10-----|-7-7-----7-7-----8-8-----10-10-----|
|-----8-8-----8-8-----8-8-------8-8-|-----8-8-----8-8-----8-8-------8-8-|
|-----------------------------------|-----------------------------------|
|-----------------------------------|-----------------------------------|
|-----------------------------------|-----------------------------------|
|-----------------------------------|-----------------------------------|


  S S S S S S S S S S S S  S  S S S   S S S S S S S S S S S S  S  S S S
|-3-3-----3-3-----5-5------7--7-----|-3-3-----3-3-----5-5------7--7-----|
|-----5-5-----5-5-----5-5-------5-5-|-----5-5-----5-5-----5-5-------5-5-|
|-----------------------------------|-----------------------------------|
|-----------------------------------|-----------------------------------|
|-----------------------------------|-----------------------------------|
|-----------------------------------|-----------------------------------|
|
| S S S S S S S S S S S S  S  S S S   S S S S S S S S S S S S  S  S S S
|-7-7-----7-7-----8-8-----10-10-----|-7-7-----7-7-----8-8-----10-10-----|
|-----8-8-----8-8-----8-8-------8-8-|-----8-8-----8-8-----8-8-------8-8-|
|-----------------------------------|-----------------------------------|
|-----------------------------------|-----------------------------------|
|-----------------------------------|-----------------------------------|
|-----------------------------------|-----------------------------------|


  S S S S S S S S S S S S  S  S S S   S S S S S S S S S S S S  S  S S S
|-3-3-----3-3-----5-5------7--7-----|-3-3-----3-3-----5-5------7--7-----|
|-----5-5-----5-5-----5-5-------5-5-|-----5-5-----5-5-----5-5-------5-5-|
|-----------------------------------|-----------------------------------|
|-----------------------------------|-----------------------------------|
|-----------------------------------|-----------------------------------|
|-----------------------------------|-----------------------------------|
|
| S S S S S S S S S S S S  S  S S S   S S S S S S S S S S S S  S  S S S
|-7-7-----7-7-----8-8-----10-10-----|-7-7-----7-7-----8-8-----10-10-----|
|-----8-8-----8-8-----8-8-------8-8-|-----8-8-----8-8-----8-8-------8-8-|
|-----------------------------------|-----------------------------------|
|-----------------------------------|-----------------------------------|
|-----------------------------------|-----------------------------------|
|-----------------------------------|-----------------------------------|


                                     Lead Part
  S S S S S S S S S S S S  S  S S S    S S  S S  S S  S S  S S  S S  S S  S S
|-3-3-----3-3-----5-5------7--7-----|-----------------------------------------|
|-----5-5-----5-5-----5-5-------5-5-|--8p0--8p0--8p0--8p0--7p0--7p0--7p0--7p0-|
|-----------------------------------|-----------------------------------------|
|-----------------------------------|-----------------------------------------|
|-----------------------------------|-----------------------------------------|
|-----------------------------------|-----------------------------------------|
|
| S S S S S S S S S S S S  S  S S S    S S  S S  S S  S S  S S  S S  S S  S S
|-7-7-----7-7-----8-8-----10-10-----|-----------------------------------------|
|-----8-8-----8-8-----8-8-------8-8-|-12p0-12p0-12p0-12p0-10p0-10p0-10p0-10p0-|
|-----------------------------------|-----------------------------------------|
|-----------------------------------|-----------------------------------------|
|-----------------------------------|-----------------------------------------|
|-----------------------------------|-----------------------------------------|


   S S  S S  S S  S S  S S  S S  S S  S S
|-----------------------------------------|
|--8p0--8p0--8p0--8p0--7p0--7p0--7p0--7p0-|
|-----------------------------------------|
|-----------------------------------------|
|-----------------------------------------|
|-----------------------------------------|
|
|  S S  S S  S S  S S  S S  S S  S S  S S
|-----------------------------------------|
|-12p0-12p0-12p0-12p0-10p0-10p0-10p0-10p0-|
|-----------------------------------------|
|-----------------------------------------|
|-----------------------------------------|
|-----------------------------------------|


   S S  S S  S S  S S  S S  S S  S S  S S
|-----------------------------------------|
|-10p0-10p0-10p0-10p0-10p0-10p0-10p0-10p0-|
|-----------------------------------------|
|-----------------------------------------|
|-----------------------------------------|
|-----------------------------------------|
|
|  S S  S S  S S  S S  S S  S S  S S  S S
|-----------------------------------------|
|-13p0-13p0-13p0-13p0-10p0-10p0-10p0-10p0-|
|-----------------------------------------|
|-----------------------------------------|
|-----------------------------------------|
|-----------------------------------------|


   S S  S S  S S  S S  S S  S S  S S  S S
|-----------------------------------------|
|--8p0--8p0--8p0--8p0--5p0--5p0--5p0--5p0-|
|-----------------------------------------|
|-----------------------------------------|
|-----------------------------------------|
|-----------------------------------------|
|
|  S S  S S  S S  S S  S S  S S  S S  S S
|-----------------------------------------|
|-12p0-12p0-12p0-12p0-17p0-17p0-13p0-13p0-|
|-----------------------------------------|
|-----------------------------------------|
|-----------------------------------------|
|-----------------------------------------|


   S S  S S  S S  S S  S S  S S  S S  S S
|-----------------------------------------|
|--8p0--8p0--8p0--8p0--7p0--7p0--7p0--7p0-|
|-----------------------------------------|
|-----------------------------------------|
|-----------------------------------------|
|-----------------------------------------|
|
|  S S  S S  S S  S S  S S  S S  S S  S S
|-----------------------------------------|
|-12p0-12p0-12p0-12p0-10p0-10p0-10p0-10p0-|
|-----------------------------------------|
|-----------------------------------------|
|-----------------------------------------|
|-----------------------------------------|


   S S  S S  S S  S S  S S  S S  S S  S S
|-----------------------------------------|
|--8p0--8p0--8p0--8p0--7p0--7p0--7p0--7p0-|
|-----------------------------------------|
|-----------------------------------------|
|-----------------------------------------|
|-----------------------------------------|
|
|  S S  S S  S S  S S  S S  S S  S S  S S
|-----------------------------------------|
|-12p0-12p0-12p0-12p0-10p0-10p0-10p0-10p0-|
|-----------------------------------------|
|-----------------------------------------|
|-----------------------------------------|
|-----------------------------------------|


   S S  S S  S S  S S  S S  S S  S S  S S
|-----------------------------------------|
|-10p0-10p0-10p0-10p0-10p0-10p0-10p0-10p0-|
|-----------------------------------------|
|-----------------------------------------|
|-----------------------------------------|
|-----------------------------------------|
|
|  S S  S S  S S  S S  S S  S S  S S  S S
|-----------------------------------------|
|-13p0-13p0-13p0-13p0-10p0-10p0-10p0-10p0-|
|-----------------------------------------|
|-----------------------------------------|
|-----------------------------------------|
|-----------------------------------------|


   S S  S S  S S  S S  S S  S S  S S  S S
|-----------------------------------------|
|-13p0-13p0-13p0-13p0-13p0-13p0-13p0-13p0-|
|-----------------------------------------|
|-----------------------------------------|
|-----------------------------------------|
|-----------------------------------------|
|
|  S S  S S  S S  S S  S S  S S  S S  S S
|-----------------------------------------|
|-17p0-17p0-17p0-17p0-13p0-13p0-13p0-13p0-|
|-----------------------------------------|
|-----------------------------------------|
|-----------------------------------------|
|-----------------------------------------|


   E.      S     +S   E.    E.    S     +Q
|-15b17---15b17-(15)-15b17-15b17-15b17-(15)--|
|--------------------------------------------|
|--------------------------------------------|
|--------------------------------------------|
|--------------------------------------------|
|--------------------------------------------|
|
|  E    E         Q         H
|--------------------------------------------|
|--------------------------------------------|
|--------------------------------------------|
|-14-----------------------------------------|
|-14-----------------------------------------|
|-12-----------------------------------------|


  Gtr I
   W
|-------------------------------------|
|-------------------------------------|
|-------------------------------------|
|-------------------------------------|
|-------------------------------------|
|-------------------------------------|
|
| Gtr II
|  E  S  S  S  S  S  S  S S S S S S E
|----12-10-------10---------7-5-3-----|
|-12-------12-10----12-10-8-------5-5-|
|-------------------------------------|
|-------------------------------------|
|-------------------------------------|
|-------------------------------------|
|
| Gtr III
|  W
|-------------------------------------|
|-------------------------------------|
|-------------------------------------|
|-------------------------------------|
|-------------------------------------|
|-------------------------------------|


 Chorus
   S  S  S  S  S  S  S  S  S  S  S  S  S  S  S  S
|--------------------------------------------------|
|--------------------------------------------------|
|--------------------------------------------------|
|--------------------------------------------------|
|-21-21-21-21-21-21-21-21-21-21-21-21-21-21-21-21--|
|--------------------------------------------------|
|
|  W
|--------------------------------------------------|
|--------------------------------------------------|
|--------------------------------------------------|
|--5-----------------------------------------------|
|--5-----------------------------------------------|
|--3-----------------------------------------------|
|
|  S  S  S  S  S  S  S  S  S  S  S  S  S  S  S  S
|--------------------------------------------------|
|--------------------------------------------------|
|--------------------------------------------------|
|--------------------------------------------------|
|--------------------------------------------------|
|--3--3--3--3--3--3--3--3--3--3--3--3--3--3--3--3--|


   S   S  S  S  S  S  S  S  S  S  S  S  S  S  S  S
|--------------------------------------------------|
|--------------------------------------------------|
|--------------------------------------------------|
|--------------------------------------------------|
|--------------------23-23-23-23-23-23-20-20-20-20-|
|-21--21-21-21-21-21-------------------------------|
|
|  H.                                   Q
|---------------------------------------2----------|
|--3------------------------------------2----------|
|--2-----------------------------------------------|
|--0------------------------------------4----------|
|--------------------------------------------------|
|--------------------------------------------------|
|
|  S   S  S  S  S  S  S  S  S  S  S  S  S  S  S  S
|--------------------------------------------------|
|--------------------------------------------------|
|--------------------------------------------------|
|--------------------------------------------------|
|--5---5--5--5--5--5--5--5--5--5--5--5-------------|
|---------------------------------------2--2--2--2-|


   S  S  S  S  S  S  S  S  S  S  S  S  S  S  S  S
|-------------------------------------------------|
|-------------------------------------------------|
|-------------------------------------------------|
|-------------------------------------------------|
|-21-21-21-21-21-21-21-21-21-21-21-21-21-21-21-21-|
|-------------------------------------------------|
|
|  W
|-------------------------------------------------|
|--5----------------------------------------------|
|--4----------------------------------------------|
|--2----------------------------------------------|
|-------------------------------------------------|
|-------------------------------------------------|
|
|  S  S  S  S  S  S  S  S  S  S  S  S  S  S  S  S
|-------------------------------------------------|
|-------------------------------------------------|
|-------------------------------------------------|
|--2--2--2--2--2--2--2--2--2--2--2--2--2--2--2--2-|
|-------------------------------------------------|
|-------------------------------------------------|


   S   S  S  S  S  S  S  S  S   S  S  S  S  S  S  S
|---------------------------------------------------|
|---------------------------------------------------|
|---------------------------------------------------|
|---------------------------------------------------|
|-20--20-20-20-20-20-21-21-21--21-21-21-23-23-23-23-|
|---------------------------------------------------|
|
|  Q.                 E    +Q            Q
|---------------------------------------------------|
|---------------------3----(3)-----------5----------|
|--6------------------0----(0)-----------2----------|
|--4------------------------------------------------|
|---------------------------------------------------|
|---------------------------------------------------|
|
|  S   S  S  S  S  S  S  S  S   S  S  S  S  S  S  S
|---------------------------------------------------|
|---------------------------------------------------|
|---------------------------------------------------|
|---------------------------------------------------|
|----------------------------------------0--0--0--0-|
|--2---2--2--2--2--2--3--3--3---3--3--3-------------|


   S  S  S  S  S  S  S  S  S  S  S  S  S  S  S  S
|-------------------------------------------------|
|-------------------------------------------------|
|-------------------------------------------------|
|-------------------------------------------------|
|-------------------------------------------------|
|-23-23-23-23-23-23-23-23-23-23-23-23-23-23-23-23-|
|
|  W
|-------------------------------------------------|
|-------------------------------------------------|
|--5----------------------------------------------|
|--5----------------------------------------------|
|--3----------------------------------------------|
|-------------------------------------------------|
|
|  S  S  S  S  S  S  S  S  S  S  S  S  S  S  S  S
|-------------------------------------------------|
|-------------------------------------------------|
|-------------------------------------------------|
|-------------------------------------------------|
|--3--3--3--3--3--3--3--3--3--3--3--3--3--3--3--3-|
|-------------------------------------------------|


   S  S  S  S  S  S  S  S  S  S  S  S  S  S  S  S
|-------------------------------------------------|
|-------------------------------------------------|
|-------------------------------------------------|
|-------------------------------------------------|
|-------------------20-20-20-20-20-20-21-21-21-21-|
|-23-23-23-23-23-23-------------------------------|
|
|  Q           Q           Q           Q
|-------------------------------------------------|
|-------------------------------------------------|
|-------------------------------------------------|
|--5-----------4-----------2-----------0----------|
|-------------------------------------------------|
|-------------------------------------------------|
|
|  Q           Q           Q           Q
|-------------------------------------------------|
|-------------------------------------------------|
|-------------------------------------------------|
|--5-----------4-----------2-----------0----------|
|-------------------------------------------------|
|-------------------------------------------------|


   S  S  S  S  S  S  S  S  S  S  S  S  S  S  S  S
|-------------------------------------------------|
|-------------------------------------------------|
|-------------------------------------------------|
|-------------------------------------------------|
|-20-20-20-20-20-20-21-21-21-21-21-21-23-23-23-23-|
|-------------------------------------------------|
|
|  E     S  S  S  S  S  S  S  S  S  S  S  S  S  S
|-------------------------------------------------|
|--3----------------------------------------------|
|--2----------------------------------------------|
|--0-----0--0--0--0--0--0--0--0--0--0--0--0--0--0-|
|-------------------------------------------------|
|-------------------------------------------------|
|
|  S  S  S  S  S  S  S  S  S  S  S  S  S  S  S  S
|-------------------------------------------------|
|-------------------------------------------------|
|-------------------------------------------------|
|--4--4--4--4--4--4--5--5--5--5--5--5--7--7--7--7-|
|-------------------------------------------------|
|-------------------------------------------------|


   S  S  S  S  S  S  S  S  S  S  E    Q
|------------------------------------------------|
|------------------------------------------------|
|-------------------------------20---------------|
|-------------20-20-21-21-23-23------------------|
|-21-21-23-23------------------------------------|
|------------------------------------------------|
|
|  S  S  S  S  S  S  S  S  S  S  S S  S  S  S  S
|------------------------------------------------|
|------------------------------------------------|
|------------------------------------------------|
|--0--0--0--0--0--0--0--0--0--0--0-0--0--0--0--0-|
|------------------------------------------------|
|------------------------------------------------|
|
|  S  S  S  S  S  S  S  S  S  S  E    S  S  S  S
|------------------------------------------------|
|------------------------------------------------|
|------------------------------------------------|
|--5--5--7--7--9--9-10-10-12-12-14---14-14-14-14-|
|------------------------------------------------|
|------------------------------------------------|


   S  S  S  S  S  S  S  S  S  S  S  S  S  S  S  S
|-------------------------------------------------|
|-------------------------------------------------|
|-------------------------------------------------|
|-------------------------------------------------|
|-21-21-21-21-21-21-21-21-21-21-21-21-21-21-21-21-|
|-------------------------------------------------|
|
|  W
|-------------------------------------------------|
|-------------------------------------------------|
|-------------------------------------------------|
|--5----------------------------------------------|
|--5----------------------------------------------|
|--3----------------------------------------------|
|
|  S  S  S  S  S  S  S  S  S  S  S  S  S  S  S  S
|-------------------------------------------------|
|-------------------------------------------------|
|-------------------------------------------------|
|-------------------------------------------------|
|-------------------------------------------------|
|--3--3--3--3--3--3--3--3--3--3--3--3--3--3--3--3-|


   S   S  S  S  S  S  S  S  S  S  S  S  S  S  S  S
|--------------------------------------------------|
|--------------------------------------------------|
|--------------------------------------------------|
|--------------------------------------------------|
|--------------------23-23-23-23-23-23-20-20-20-20-|
|-21--21-21-21-21-21-------------------------------|
|
|  H.                                   Q
|---------------------------------------2----------|
|--3------------------------------------2----------|
|--2-----------------------------------------------|
|--0------------------------------------4----------|
|--------------------------------------------------|
|--------------------------------------------------|
|
|  S   S  S  S  S  S  S  S  S  S  S  S  S  S  S  S
|--------------------------------------------------|
|--------------------------------------------------|
|--------------------------------------------------|
|--------------------------------------------------|
|--5---5--5--5--5--5--5--5--5--5--5--5-------------|
|---------------------------------------2--2--2--2-|


   S  S  S  S  S  S  S  S  S  S  S  S  S  S  S  S
|-------------------------------------------------|
|-------------------------------------------------|
|-------------------------------------------------|
|-------------------------------------------------|
|-21-21-21-21-21-21-21-21-21-21-21-21-21-21-21-21-|
|-------------------------------------------------|
|
|  W
|-------------------------------------------------|
|--5----------------------------------------------|
|--4----------------------------------------------|
|--2----------------------------------------------|
|-------------------------------------------------|
|-------------------------------------------------|
|
|  S  S  S  S  S  S  S  S  S  S  S  S  S  S  S  S
|-------------------------------------------------|
|-------------------------------------------------|
|-------------------------------------------------|
|--2--2--2--2--2--2--2--2--2--2--2--2--2--2--2--2-|
|-------------------------------------------------|
|-------------------------------------------------|


   S   S  S  S  S  S  S  S  S   S  S  S  S  S  S  S
|---------------------------------------------------|
|---------------------------------------------------|
|---------------------------------------------------|
|---------------------------------------------------|
|-20--20-20-20-20-20-21-21-21--21-21-21-23-23-23-23-|
|---------------------------------------------------|
|
|  Q.                 E    +Q            Q
|---------------------------------------------------|
|---------------------3----(3)-----------5----------|
|--6------------------0----(0)-----------2----------|
|--4------------------------------------------------|
|---------------------------------------------------|
|---------------------------------------------------|
|
|  S   S  S  S  S  S  S  S  S   S  S  S  S  S  S  S
|---------------------------------------------------|
|---------------------------------------------------|
|---------------------------------------------------|
|---------------------------------------------------|
|----------------------------------------0--0--0--0-|
|--2---2--2--2--2--2--3--3--3---3--3--3-------------|


   S  S  S  S  S  S  S  S  S  S  S  S  S  S  S  S
|-------------------------------------------------|
|-------------------------------------------------|
|-------------------------------------------------|
|-------------------------------------------------|
|-------------------------------------------------|
|-23-23-23-23-23-23-23-23-23-23-23-23-23-23-23-23-|
|
|  W
|-------------------------------------------------|
|-------------------------------------------------|
|--5----------------------------------------------|
|--5----------------------------------------------|
|--3----------------------------------------------|
|-------------------------------------------------|
|
|  S  S  S  S  S  S  S  S  S  S  S  S  S  S  S  S
|-------------------------------------------------|
|-------------------------------------------------|
|-------------------------------------------------|
|-------------------------------------------------|
|--3--3--3--3--3--3--3--3--3--3--3--3--3--3--3--3-|
|-------------------------------------------------|


   S  S  S  S  S  S  S  S  S  S  S  S  S  S  S  S
|-------------------------------------------------|
|-------------------------------------------------|
|-------------------------------------------------|
|-------------------------------------------------|
|-------------------20-20-20-20-20-20-21-21-21-21-|
|-23-23-23-23-23-23-------------------------------|
|
|  Q           Q           Q           Q
|-------------------------------------------------|
|-------------------------------------------------|
|-------------------------------------------------|
|--5-----------4-----------2-----------0----------|
|-------------------------------------------------|
|-------------------------------------------------|
|
|  Q           Q           Q           Q
|-------------------------------------------------|
|-------------------------------------------------|
|-------------------------------------------------|
|--5-----------4-----------2-----------0----------|
|-------------------------------------------------|
|-------------------------------------------------|


   S  S  S  S  S  S  S  S  S  S  S  S  S  S  S  S
|-------------------------------------------------|
|-------------------------------------------------|
|-------------------------------------------------|
|-------------------------------------------------|
|-20-20-20-20-20-20-21-21-21-21-21-21-23-23-23-23-|
|-------------------------------------------------|
|
|  E     S  S  S  S  S  S  S  S  S  S  S  S  S  S
|-------------------------------------------------|
|--3----------------------------------------------|
|--2----------------------------------------------|
|--0-----0--0--0--0--0--0--0--0--0--0--0--0--0--0-|
|-------------------------------------------------|
|-------------------------------------------------|
|
|  S  S  S  S  S  S  S  S  S  S  S  S  S  S  S  S
|-------------------------------------------------|
|-------------------------------------------------|
|-------------------------------------------------|
|--4--4--4--4--4--4--5--5--5--5--5--5--7--7--7--7-|
|-------------------------------------------------|
|-------------------------------------------------|


                                                  Chorus(Bass and Drum)
   S  S  S  S  S  S  S  S  S  S  E    Q            W          W
|------------------------------------------------|----------|------|
|------------------------------------------------|----------|------|
|-------------------------------20---------------|----------|------|
|-------------20-20-21-21-23-23------------------|----------|------|
|-21-21-23-23------------------------------------|----------|------|
|------------------------------------------------|----------|------|
|
|  S  S  S  S  S  S  S  S  S  S  S S  S  S  S  S   W          W
|------------------------------------------------|----------|------|
|------------------------------------------------|----------|------|
|------------------------------------------------|----------|------|
|--0--0--0--0--0--0--0--0--0--0--0-0--0--0--0--0-|----------|------|
|------------------------------------------------|----------|------|
|------------------------------------------------|----------|------|
|
|  S  S  S  S  S  S  S  S  S  S  E    S  S  S  S   W          W
|------------------------------------------------|----------|------|
|------------------------------------------------|----------|------|
|------------------------------------------------|----------|------|
|--5--5--7--7--9--9-10-10-12-12-14---14-14-14-14-|----------|------|
|------------------------------------------------|----------|------|
|------------------------------------------------|----------|------|


  W          W          W          W
|----------|----------|----------|------|
|----------|----------|----------|------|
|----------|----------|----------|------|
|----------|----------|----------|------|
|----------|----------|----------|------|
|----------|----------|----------|------|


                       Chorus
  W          W           S  S  S  S  S  S  S  S  S  S  S  S  S  S  S  S
|----------|----------|--------------------------------------------------|
|----------|----------|--------------------------------------------------|
|----------|----------|--------------------------------------------------|
|----------|----------|--------------------------------------------------|
|----------|----------|-21-21-21-21-21-21-21-21-21-21-21-21-21-21-21-21--|
|----------|----------|--------------------------------------------------|
|
| Gtr II
| W          W           W
|----------|----------|--------------------------------------------------|
|----------|----------|--------------------------------------------------|
|----------|----------|--------------------------------------------------|
|----------|----------|--5-----------------------------------------------|
|----------|----------|--5-----------------------------------------------|
|----------|----------|--3-----------------------------------------------|
|
| Gtr III
| W          W           S  S  S  S  S  S  S  S  S  S  S  S  S  S  S  S
|----------|----------|--------------------------------------------------|
|----------|----------|--------------------------------------------------|
|----------|----------|--------------------------------------------------|
|----------|----------|--------------------------------------------------|
|----------|----------|--------------------------------------------------|
|----------|----------|--3--3--3--3--3--3--3--3--3--3--3--3--3--3--3--3--|


   S   S  S  S  S  S  S  S  S  S  S  S  S  S  S  S
|--------------------------------------------------|
|--------------------------------------------------|
|--------------------------------------------------|
|--------------------------------------------------|
|--------------------23-23-23-23-23-23-20-20-20-20-|
|-21--21-21-21-21-21-------------------------------|
|
|  H.                                   Q
|---------------------------------------2----------|
|--3------------------------------------2----------|
|--2-----------------------------------------------|
|--0------------------------------------4----------|
|--------------------------------------------------|
|--------------------------------------------------|
|
|  S   S  S  S  S  S  S  S  S  S  S  S  S  S  S  S
|--------------------------------------------------|
|--------------------------------------------------|
|--------------------------------------------------|
|--------------------------------------------------|
|--5---5--5--5--5--5--5--5--5--5--5--5-------------|
|---------------------------------------2--2--2--2-|


   S  S  S  S  S  S  S  S  S  S  S  S  S  S  S  S
|-------------------------------------------------|
|-------------------------------------------------|
|-------------------------------------------------|
|-------------------------------------------------|
|-21-21-21-21-21-21-21-21-21-21-21-21-21-21-21-21-|
|-------------------------------------------------|
|
|  W
|-------------------------------------------------|
|--5----------------------------------------------|
|--4----------------------------------------------|
|--2----------------------------------------------|
|-------------------------------------------------|
|-------------------------------------------------|
|
|  S  S  S  S  S  S  S  S  S  S  S  S  S  S  S  S
|-------------------------------------------------|
|-------------------------------------------------|
|-------------------------------------------------|
|--2--2--2--2--2--2--2--2--2--2--2--2--2--2--2--2-|
|-------------------------------------------------|
|-------------------------------------------------|


   S   S  S  S  S  S  S  S  S   S  S  S  S  S  S  S
|---------------------------------------------------|
|---------------------------------------------------|
|---------------------------------------------------|
|---------------------------------------------------|
|-20--20-20-20-20-20-21-21-21--21-21-21-23-23-23-23-|
|---------------------------------------------------|
|
|  Q.                 E    +Q            Q
|---------------------------------------------------|
|---------------------3----(3)-----------5----------|
|--6------------------0----(0)-----------2----------|
|--4------------------------------------------------|
|---------------------------------------------------|
|---------------------------------------------------|
|
|  S   S  S  S  S  S  S  S  S   S  S  S  S  S  S  S
|---------------------------------------------------|
|---------------------------------------------------|
|---------------------------------------------------|
|---------------------------------------------------|
|----------------------------------------0--0--0--0-|
|--2---2--2--2--2--2--3--3--3---3--3--3-------------|


   S  S  S  S  S  S  S  S  S  S  S  S  S  S  S  S
|-------------------------------------------------|
|-------------------------------------------------|
|-------------------------------------------------|
|-------------------------------------------------|
|-------------------------------------------------|
|-23-23-23-23-23-23-23-23-23-23-23-23-23-23-23-23-|
|
|  W
|-------------------------------------------------|
|-------------------------------------------------|
|--5----------------------------------------------|
|--5----------------------------------------------|
|--3----------------------------------------------|
|-------------------------------------------------|
|
|  S  S  S  S  S  S  S  S  S  S  S  S  S  S  S  S
|-------------------------------------------------|
|-------------------------------------------------|
|-------------------------------------------------|
|-------------------------------------------------|
|--3--3--3--3--3--3--3--3--3--3--3--3--3--3--3--3-|
|-------------------------------------------------|


   S  S  S  S  S  S  S  S  S  S  S  S  S  S  S  S
|-------------------------------------------------|
|-------------------------------------------------|
|-------------------------------------------------|
|-------------------------------------------------|
|-------------------20-20-20-20-20-20-21-21-21-21-|
|-23-23-23-23-23-23-------------------------------|
|
|  Q           Q           Q           Q
|-------------------------------------------------|
|-------------------------------------------------|
|-------------------------------------------------|
|--5-----------4-----------2-----------0----------|
|-------------------------------------------------|
|-------------------------------------------------|
|
|  Q           Q           Q           Q
|-------------------------------------------------|
|-------------------------------------------------|
|-------------------------------------------------|
|--5-----------4-----------2-----------0----------|
|-------------------------------------------------|
|-------------------------------------------------|


   S  S  S  S  S  S  S  S  S  S  S  S  S  S  S  S
|-------------------------------------------------|
|-------------------------------------------------|
|-------------------------------------------------|
|-------------------------------------------------|
|-20-20-20-20-20-20-21-21-21-21-21-21-23-23-23-23-|
|-------------------------------------------------|
|
|  E     S  S  S  S  S  S  S  S  S  S  S  S  S  S
|-------------------------------------------------|
|--3----------------------------------------------|
|--2----------------------------------------------|
|--0-----0--0--0--0--0--0--0--0--0--0--0--0--0--0-|
|-------------------------------------------------|
|-------------------------------------------------|
|
|  S  S  S  S  S  S  S  S  S  S  S  S  S  S  S  S
|-------------------------------------------------|
|-------------------------------------------------|
|-------------------------------------------------|
|--4--4--4--4--4--4--5--5--5--5--5--5--7--7--7--7-|
|-------------------------------------------------|
|-------------------------------------------------|


   S  S  S  S  S  S  S  S  S  S  E    Q
|------------------------------------------------|
|------------------------------------------------|
|-------------------------------20---------------|
|-------------20-20-21-21-23-23------------------|
|-21-21-23-23------------------------------------|
|------------------------------------------------|
|
|  S  S  S  S  S  S  S  S  S  S  S S  S  S  S  S
|------------------------------------------------|
|------------------------------------------------|
|------------------------------------------------|
|--0--0--0--0--0--0--0--0--0--0--0-0--0--0--0--0-|
|------------------------------------------------|
|------------------------------------------------|
|
|  S  S  S  S  S  S  S  S  S  S  E    S  S  S  S
|------------------------------------------------|
|------------------------------------------------|
|------------------------------------------------|
|--5--5--7--7--9--9-10-10-12-12-14---14-14-14-14-|
|------------------------------------------------|
|------------------------------------------------|


   S  S  S  S  S  S  S  S  S  S  S  S  S  S  S  S
|-------------------------------------------------|
|-------------------------------------------------|
|-------------------------------------------------|
|-------------------------------------------------|
|-21-21-21-21-21-21-21-21-21-21-21-21-21-21-21-21-|
|-------------------------------------------------|
|
|  W
|-------------------------------------------------|
|-------------------------------------------------|
|-------------------------------------------------|
|--5----------------------------------------------|
|--5----------------------------------------------|
|--3----------------------------------------------|
|
|  S  S  S  S  S  S  S  S  S  S  S  S  S  S  S  S
|-------------------------------------------------|
|-------------------------------------------------|
|-------------------------------------------------|
|-------------------------------------------------|
|-------------------------------------------------|
|--3--3--3--3--3--3--3--3--3--3--3--3--3--3--3--3-|


   S   S  S  S  S  S  S  S  S  S  S  S  S  S  S  S
|--------------------------------------------------|
|--------------------------------------------------|
|--------------------------------------------------|
|--------------------------------------------------|
|--------------------23-23-23-23-23-23-20-20-20-20-|
|-21--21-21-21-21-21-------------------------------|
|
|  H.                                   Q
|---------------------------------------2----------|
|--3------------------------------------2----------|
|--2-----------------------------------------------|
|--0------------------------------------4----------|
|--------------------------------------------------|
|--------------------------------------------------|
|
|  S   S  S  S  S  S  S  S  S  S  S  S  S  S  S  S
|--------------------------------------------------|
|--------------------------------------------------|
|--------------------------------------------------|
|--------------------------------------------------|
|--5---5--5--5--5--5--5--5--5--5--5--5-------------|
|---------------------------------------2--2--2--2-|


   S  S  S  S  S  S  S  S  S  S  S  S  S  S  S  S
|-------------------------------------------------|
|-------------------------------------------------|
|-------------------------------------------------|
|-------------------------------------------------|
|-21-21-21-21-21-21-21-21-21-21-21-21-21-21-21-21-|
|-------------------------------------------------|
|
|  W
|-------------------------------------------------|
|--5----------------------------------------------|
|--4----------------------------------------------|
|--2----------------------------------------------|
|-------------------------------------------------|
|-------------------------------------------------|
|
|  S  S  S  S  S  S  S  S  S  S  S  S  S  S  S  S
|-------------------------------------------------|
|-------------------------------------------------|
|-------------------------------------------------|
|--2--2--2--2--2--2--2--2--2--2--2--2--2--2--2--2-|
|-------------------------------------------------|
|-------------------------------------------------|


   S   S  S  S  S  S  S  S  S   S  S  S  S  S  S  S
|---------------------------------------------------|
|---------------------------------------------------|
|---------------------------------------------------|
|---------------------------------------------------|
|-20--20-20-20-20-20-21-21-21--21-21-21-23-23-23-23-|
|---------------------------------------------------|
|
|  Q.                 E    +Q            Q
|---------------------------------------------------|
|---------------------3----(3)-----------5----------|
|--6------------------0----(0)-----------2----------|
|--4------------------------------------------------|
|---------------------------------------------------|
|---------------------------------------------------|
|
|  S   S  S  S  S  S  S  S  S   S  S  S  S  S  S  S
|---------------------------------------------------|
|---------------------------------------------------|
|---------------------------------------------------|
|---------------------------------------------------|
|----------------------------------------0--0--0--0-|
|--2---2--2--2--2--2--3--3--3---3--3--3-------------|


   S  S  S  S  S  S  S  S  S  S  S  S  S  S  S  S
|-------------------------------------------------|
|-------------------------------------------------|
|-------------------------------------------------|
|-------------------------------------------------|
|-------------------------------------------------|
|-23-23-23-23-23-23-23-23-23-23-23-23-23-23-23-23-|
|
|  W
|-------------------------------------------------|
|-------------------------------------------------|
|--5----------------------------------------------|
|--5----------------------------------------------|
|--3----------------------------------------------|
|-------------------------------------------------|
|
|  S  S  S  S  S  S  S  S  S  S  S  S  S  S  S  S
|-------------------------------------------------|
|-------------------------------------------------|
|-------------------------------------------------|
|-------------------------------------------------|
|--3--3--3--3--3--3--3--3--3--3--3--3--3--3--3--3-|
|-------------------------------------------------|


   S  S  S  S  S  S  S  S  S  S  S  S  S  S  S  S
|-------------------------------------------------|
|-------------------------------------------------|
|-------------------------------------------------|
|-------------------------------------------------|
|-------------------20-20-20-20-20-20-21-21-21-21-|
|-23-23-23-23-23-23-------------------------------|
|
|  Q           Q           Q           Q
|-------------------------------------------------|
|-------------------------------------------------|
|-------------------------------------------------|
|--5-----------4-----------2-----------0----------|
|-------------------------------------------------|
|-------------------------------------------------|
|
|  Q           Q           Q           Q
|-------------------------------------------------|
|-------------------------------------------------|
|-------------------------------------------------|
|--5-----------4-----------2-----------0----------|
|-------------------------------------------------|
|-------------------------------------------------|


   S  S  S  S  S  S  S  S  S  S  S  S  S  S  S  S
|-------------------------------------------------|
|-------------------------------------------------|
|-------------------------------------------------|
|-------------------------------------------------|
|-20-20-20-20-20-20-21-21-21-21-21-21-23-23-23-23-|
|-------------------------------------------------|
|
|  E     S  S  S  S  S  S  S  S  S  S  S  S  S  S
|-------------------------------------------------|
|--3----------------------------------------------|
|--2----------------------------------------------|
|--0-----0--0--0--0--0--0--0--0--0--0--0--0--0--0-|
|-------------------------------------------------|
|-------------------------------------------------|
|
|  S  S  S  S  S  S  S  S  S  S  S  S  S  S  S  S
|-------------------------------------------------|
|-------------------------------------------------|
|-------------------------------------------------|
|--4--4--4--4--4--4--5--5--5--5--5--5--7--7--7--7-|
|-------------------------------------------------|
|-------------------------------------------------|


   S  S  S  S  S  S  S  S  S  S  E    Q
|------------------------------------------------|
|------------------------------------------------|
|-------------------------------20---------------|
|-------------20-20-21-21-23-23------------------|
|-21-21-23-23------------------------------------|
|------------------------------------------------|
|
|  S  S  S  S  S  S  S  S  S  S  S S  S  S  S  S
|------------------------------------------------|
|------------------------------------------------|
|------------------------------------------------|
|--0--0--0--0--0--0--0--0--0--0--0-0--0--0--0--0-|
|------------------------------------------------|
|------------------------------------------------|
|
|  S  S  S  S  S  S  S  S  S  S  E    S  S  S  S
|------------------------------------------------|
|------------------------------------------------|
|------------------------------------------------|
|--5--5--7--7--9--9-10-10-12-12-14---14-14-14-14-|
|------------------------------------------------|
|------------------------------------------------|


 Final
  W
|-------------------------------|
|-------------------------------|
|-------------------------------|
|-------------------------------|
|-------------------------------|
|-------------------------------|
|
| E S S S S S S S S S S S S S S
|-----------5-------------------|
|-----------5-6-----6---5-------|
|-4---------2-5-----5---4-------|
|-2-----------3-----3---2-------|
|-2-----------------------------|
|---0-0-0-0-----0-0---0---0-0-0-|
|
| E S S S S S S S S S S S S S S
|-----------5-------------------|
|-----------5-6-----6---5-------|
|-4---------2-5-----5---4-------|
|-2-----------3-----3---2-------|
|-2-----------------------------|
|---0-0-0-0-----0-0---0---0-0-0-|


  Gtrs II, III
  E. S +E  E Q  Q    E S S S S S S S S S S S S S S   E. S +E  E Q  Q
|------------------|-----------5-------------------|------------------|
|------------------|-----------5-6-----6---5-------|------------------|
|-2--4-(4)-5-4--2--|-4---------2-5-----5---4-------|-2--4-(4)-5-4--2--|
|-0--2-(2)-3-2--0--|-2-----------3-----3---2-------|-0--2-(2)-3-2--0--|
|-0--2-(2)-3-2--0--|-2-----------------------------|-0--2-(2)-3-2--0--|
|------------------|---0-0-0-0-----0-0---0---0-0-0-|------------------|


  S S S S S S S S S S S S S S E   S S S S S S S S H
|-------------------------------|----------------------*|
|-------------------------------|----------------------*|
|-------------------------------|----------------------*|
|-------------------------------|----------------------*|
|-2-2---2-2---2-2---2-2---2-2---|-2-2---2-2---2-2------*|
|-0-0---0-0---0-0---0-0---0-0---|-0-0---0-0---0-0------*|



Duration Legend
---------------
W - whole; H - half; Q - quarter; E - 8th; S - 16th; T - 32nd; X - 64th; a - acciaccatura
+ - note tied to previous; . - note dotted; .. - note double dotted
Uncapitalized letters represent notes that are staccato (1/2 duration)
Irregular groupings are notated above the duration line
Duration letters will always appear directly above the note/fret number it represents the
duration for.  Duration letters with no fret number below them represent rests.  Multi-
bar rests are notated in the form Wxn, where n is the number of bars to rest for.  Low
melody durations appear below the staff

Tablature Legend
----------------
 h   - hammer-on
 p   - pull-off
 b   - bend
 pb  - pre-bend
 r   - bend release (if no number after the r, then release immediately)
 /\  - slide into or out of (from/to "nowhere")
 s   - legato slide
 S   - shift slide
 - natural harmonic
[n]  - artificial harmonic
n(n) - tapped harmonic
 ~   - vibrato
 tr  - trill
 T   - tap
 TP  - trem. picking
 PM  - palm muting
\n/  - tremolo bar dip; n = amount to dip
 \n  - tremolo bar down
 n/  - tremolo bar up
/n\  - tremolo bar inverted dip
 =   - hold bend; also acts as connecting device for hammers/pulls
 <> - volume swell (louder/softer)
 x   - on rhythm slash represents muted slash
 o   - on rhythm slash represents single note slash

Misc Legend
-----------
 |  - bar
||  - double bar
||o - repeat start
o|| - repeat end
*|  - double bar (ending)
 :  - bar (freetime)
 $  - Segno
 &  - Coda
Tempo markers -  = BPM(8/16=s8/s16), where s8 = swing 8ths, s16 = swing 16ths

Related for Just A Little Sign tab