Song name
# A B C D E F G H I J K L M N O P Q R S T U V W X Y Z

Helloween - Before The War tab

Help us improve GuitareTab! Take a short survey!
#----------------------------------PLEASE NOTE---------------------------------#
#This file is the author's own work and represents their interpretation of the #
#song. You may only use this file for private study, scholarship, or research. #
#------------------------------------------------------------------------------#

BEFORE THE WAR
As recorded by Helloween
(From the 1996 Album TIME OF THE OATH)

Transcribed by Ivan - (peekaboo104@hotmail.com)
	

Words and Music by Andi Deris, Michael Weikath, Roland Grapow, Markus Grosskopf and Uli Kush

Bm
x x 9 7 7 7
	
F/D
x x x 7 6 5
	
F/C
x x x 5 6 5
	
Bb
x x 8 7 6 6

Gm
x x 5 3 3 3
	
C5
x 3 5 5 x x
	
E5
x 7 9 9 x x

Gtr I (E A D G B E) - 'Michael Weikath'
Gtr II (E A D G B E) - 'Roland Grapow'
Gtr III (E A D G B E) - 'Dist.'
Gtr IV (E A D G B E) - 'Acoustic'

 Intro           1st Verse
  Moderately Fast Rock Q=295
  N.C.            (D)     (F)       (E)     (F)       (D)     (F)
 4/4
  Gtrs I, II
                  PM------------------------------------------------|
  Wx34            E E E E E E E E   E E E E E E E E   E E E E E E E E
|-------------||------------------|-----------------|-----------------|
|-------------||o-----------------|-----------------|-----------------|
|-------------||------------------|-----------------|-----------------|
|-------------||------------------|-----------------|-----------------|
|-------------||o-5-5-5-5-8-8-8-8-|-7-7-7-7-8-8-8-8-|-5-5-5-5-8-8-8-8-|
|-------------||------------------|-----------------|-----------------|


  (E)     (F)       (Bb)    (F)
  PM---------------------------------
  E E E E E E E E   E E E E E E E E
|-----------------|-----------------|
|-----------------|-----------------|
|-----------------|-----------------|
|-----------------|-----------------|
|-7-7-7-7-8-8-8-8-|---------8-8-8-8-|
|-----------------|-6-6-6-6---------|


  (E)     (F)       (G)
 ----------------------------------------|
  E E E E E E E E    E  E  E  E  E  E  E  E
|-----------------|-------------------------|
|-----------------|-------------------------|
|-----------------|-------------------------|
|-----------------|-------------------------|
|-7-7-7-7-8-8-8-8-|-10-10-10-10-10-10-10-10-|
|-----------------|-------------------------|


                      Pre-Chorus
  C5  F5               Bm
                       Gtr IV
   W                   H.           Q     W                 W
                       |
                       /

                       PM-------------------------------------------------|
   Q   H     +Q        E  E E E E E E E   E E E E E E E E   E E E E E E E E
|-------------------||------------------|-----------------|-----------------|
|------------------o||------------------|-----------------|-----------------|
|-----10----(10)\---||------------------|-----------------|-----------------|
|-10--10----(10)\---||------------------|-----------------|-----------------|
|-10---8-----(8)\--o||------------------|-----------------|-----------------|
|--8----------------||-7--7-7-7-7-7-7-7-|-7-7-7-7-7-7-7-7-|-7-7-7-7-7-7-7-7-|


  B                 F/D                                   F/C
  W                 H       +E Q.       W                 H       +E Q.
                    |        |                            |        |
                    /        /                            /        /

  PM----------------------------------------------------------------------|
  E E E E E E E E   E E E E  E E  E E   E E E E E E E E   E E E E  E E  E E
|-----------------|-------------------|-----------------|-------------------|
|-----------------|-------------------|-----------------|-------------------|
|-----------------|-------------------|-----------------|-------------------|
|-----------------|-------------------|-----------------|-------------------|
|-----------------|-5-5-5-5--5-5--5-5-|-5-5-5-5-5-5-5-5-|-5-5-5-5--5-5--5-5-|
|-7-7-7-7-7-7-7-7-|-------------------|-----------------|-------------------|


  D                 Bb
  W                 H.           Q     W                 W
                    |
                    /

  PM-------------------------------------------------------------------|
  E E E E E E E E   E  E E E E E E E   E E E E E E E E   E E E E E E E E
|-----------------|------------------|-----------------|-----------------|
|-----------------|------------------|-----------------|-----------------|
|-----------------|------------------|-----------------|-----------------|
|-----------------|------------------|-----------------|-----------------|
|-5-5-5-5-5-5-5-5-|------------------|-----------------|-----------------|
|-----------------|-6--6-6-6-6-6-6-6-|-6-6-6-6-6-6-6-6-|-6-6-6-6-6-6-6-6-|


                                                 Chorus
                    Gm                            D5
  W                 H.        Q    W              W
                    |
                    /

  PM------------|
  E E E E E E E E   Q   Q  Q  Q    Q  Q  Q  Q     W
|-----------------|--------------|-------------||---------------------|
|-----------------|--------------|-------------||---------------------|
|-----------------|--------------|-------------||-7-------------------|
|-----------------|--------------|-------------||-7-------------------|
|-----------------|-5---5--5--5--|-5--5--5--3--||-5-------------------|
|-6-6-6-6-6-6-6-6-|-3---3--3--3--|-3--3--------||---------------------|
|
|                                                 Gtr II
| W                 W              W              W
|-----------------|--------------|-------------||---------------------|
|-----------------|--------------|-------------||---------------------|
|-----------------|--------------|-------------||-7-------------------|
|-----------------|--------------|-------------||-7-------------------|
|-----------------|--------------|-------------||-5-------------------|
|-----------------|--------------|-------------||---------------------|
|
|                                                 Gtr III
|                                                 PM---------------|
| W                 W              W              E E  E  E E E  E  E
|-----------------|--------------|-------------||---------------------|
|-----------------|--------------|-------------||---------------------|
|-----------------|--------------|-------------||-7-7-10-10-9-9-10-10-|
|-----------------|--------------|-------------||---------------------|
|-----------------|--------------|-------------||---------------------|
|-----------------|--------------|-------------||---------------------|


                          A5
  +W                      W
|-----------------------|---------------------|
|-----------------------|---------------------|
|-(7)-------------------|---------------------|
|-(7)-------------------|-7-------------------|
|-(5)-------------------|-7-------------------|
|-----------------------|-5-------------------|
|
| +W                      W
|-----------------------|---------------------|
|-----------------------|---------------------|
|-(7)-------------------|---------------------|
|-(7)-------------------|-7-------------------|
|-(5)-------------------|-7-------------------|
|-----------------------|-5-------------------|
|
|  PM------------------------------------------
|  E  E  E  E E E  E  E   E E  E  E E E  E  E
|-----------------------|---------------------|
|-----------------------|---------------------|
|--7--7-10-10-9-9-10-10-|---------------------|
|-----------------------|-7-7-10-10-9-9-10-10-|
|-----------------------|---------------------|
|-----------------------|---------------------|


                          Bb5
   ~~~
   W                      W
|-----------------------|-----------------------|
|-----------------------|-----------------------|
|-----------------------|-----------------------|
|--8--------------------|-8---------------------|
|-----------------------|-8---------------------|
|-----------------------|-6---------------------|
|
|                         ~
| +W                      W
|-----------------------|-----------------------|
|-----------------------|-----------------------|
|-----------------------|-----------------------|
|-(7)-------------------|-----------------------|
|-(7)-------------------|-4---------------------|
|-(5)-------------------|-----------------------|
|
|--------------------------------------------|
|  E  E  E  E E E  E  E   E E  E  E  E  E  E  E
|-----------------------|-----------------------|
|-----------------------|-----------------------|
|-----------------------|-----------------------|
|--7--7-10-10-9-9-10-10-|-8-8-12-12-10-10-12-12-|
|-----------------------|-----------------------|
|-----------------------|-----------------------|


  C5                 D
                     PM---------------|
   W                 E E  E  E E E  E  E
|------------------|---------------------|
|------------------|---------------------|
|------------------|---------------------|
|-10---------------|---------------------|
|-10---------------|-5-5--5--5-5-5--5--5-|
|--8---------------|---------------------|
|
|                    PM-------------------
|  W                 E E  E  E E E  E  E
|------------------|---------------------|
|------------------|---------------------|
|------------------|---------------------|
|-10---------------|---------------------|
|-10---------------|-5-5--5--5-5-5--5--5-|
|--8---------------|---------------------|
|
|  PM-------------------------------------
|  E E E E E E E E   E E  E  E E E  E  E
|------------------|---------------------|
|------------------|---------------------|
|--5-5-9-9-7-7-9-9-|-7-7-10-10-9-9-10-10-|
|------------------|---------------------|
|------------------|---------------------|
|------------------|---------------------|


                        Bb5
                        ~
  Q    Q    Q    Q      W
|---------------------|-----------------------|
|---------------------|-----------------------|
|-7---------7----7----|-7---------------------|
|------7--------------|-----------------------|
|---------------------|-----------------------|
|---------------------|-----------------------|
|
|------------------|
| E E  E  E E E  E  E   W
|---------------------|-----------------------|
|---------------------|-----------------------|
|---------------------|-3---------------------|
|---------------------|-3---------------------|
|-5-5--0--0-5-5--0--0-|-1---------------------|
|---------------------|-----------------------|
|
|------------------------------------------|
| E E  E  E E E  E  E   E E  E  E  E  E  E  E
|---------------------|-----------------------|
|---------------------|-----------------------|
|-7-7-10-10-9-9-10-10-|-----------------------|
|---------------------|-8-8-12-12-10-10-12-12-|
|---------------------|-----------------------|
|---------------------|-----------------------|


                            A
   ~~~                      PM----|
  +W                        E E E E Q  Q
|-------------------------|---------------|
|-------------------------|---------------|
|-(7)---------------------|---------------|
|-------------------------|---------------|
|-------------------------|-0-0-0-0-0-----|
|-------------------------|---------------|
|
|                           PM----|
| +W                        E E E E Q  Q
|-------------------------|---------------|
|-------------------------|---------------|
|-(3)---------------------|---------------|
|-(3)---------------------|---------------|
|-(1)---------------------|-0-0-0-0-0-----|
|-------------------------|---------------|
|
|  PM------------------|
|  E  E  E  E  E  E  E  E   W
|-------------------------|---------------|
|-------------------------|---------------|
|-------------------------|---------------|
|--8--8-12-12-10-10-12-12-|---------------|
|-------------------------|---------------|
|-------------------------|---------------|


  W                 +H..             E
|-----------------|--------------------|
|-----------------|--------------------|
|-----------------|--------------------|
|-----------------|--------------------|
|-0---------------|-(0)----------------|
|-----------------|--------------------|
|
| W                 +H..             E
|-----------------|--------------------|
|-----------------|--------------------|
|-----------------|--------------------|
|-----------------|--------------------|
|-0---------------|-(0)----------------|
|-----------------|--------------------|
|
| PM---------------------------------|
| E E E E E E E E    E   E E E E E E E
|-----------------|--------------------|
|-----------------|--------------------|
|-----------------|--------------------|
|-5-5-8-8-7-7-8-8-|--5---5-8-8-7-7-8-8-|
|-----------------|--------------------|
|-----------------|--------------------|


  D5
  W                     +W
|---------------------|-----------------------|
|---------------------|-----------------------|
|---------------------|-----------------------|
|-7-------------------|-(7)-------------------|
|-5-------------------|-(5)-------------------|
|---------------------|-----------------------|
|
| W                     +W
|---------------------|-----------------------|
|---------------------|-----------------------|
|-7-------------------|-(7)-------------------|
|-7-------------------|-(7)-------------------|
|-5-------------------|-(5)-------------------|
|---------------------|-----------------------|
|
|-PM--------------------|PM--------------------
| E E  E  E E E  E  E    E  E  E  E E E  E  E
|---------------------|-----------------------|
|-6-6-10-10-8-8-10-10-|--6--6-10-10-8-8-10-10-|
|-7-7-10-10-9-9-10-10-|--7--7-10-10-9-9-10-10-|
|---------------------|-----------------------|
|---------------------|-----------------------|
|---------------------|-----------------------|
  E E  E  E E E  E  E    E  E  E  E E E  E  E


  A5
                         ~~~
  W                      W
|---------------------|-----------------------|
|---------------------|-----------------------|
|---------------------|-----------------------|
|---------------------|--7--------------------|
|-7-------------------|-----------------------|
|-5-------------------|-----------------------|
|
| W                     +W
|---------------------|-----------------------|
|---------------------|-----------------------|
|---------------------|-----------------------|
|-7-------------------|-(7)-------------------|
|-7-------------------|-(7)-------------------|
|-5-------------------|-(5)-------------------|
|
|-PM--------------------|PM----------------|
| E E  E  E E E  E  E    E  E  E  E E E  E  E
|---------------------|-----------------------|
|---------------------|-----------------------|
|-5-5--9--9-7-7--9--9-|--5--5--9--9-7-7--9--9-|
|-7-7-10-10-9-9-10-10-|--7--7-10-10-9-9-10-10-|
|---------------------|-----------------------|
|---------------------|-----------------------|
  E E  E  E E E  E  E    E  E  E  E E E  E  E


  Bb5                     C5
  W                        W
|-----------------------|------------------|
|-----------------------|------------------|
|-----------------------|------------------|
|-----------------------|------------------|
|-8---------------------|-10---------------|
|-6---------------------|--8---------------|
|
| W                        W
|-----------------------|------------------|
|-----------------------|------------------|
|-----------------------|------------------|
|-8---------------------|-10---------------|
|-8---------------------|-10---------------|
|-6---------------------|--8---------------|
|
|-PM----------------------|PM---------------
| E E  E  E  E  E  E  E    E E E E E E E E
|-----------------------|------------------|
|-----------------------|--5-5-8-8-6-6-8-8-|
|-7-7-10-10--9--9-10-10-|--5-5-9-9-7-7-9-9-|
|-8-8-12-12-10-10-12-12-|------------------|
|-----------------------|------------------|
|-----------------------|------------------|
  E E  E  E  E  E  E  E    E E E E E E E E


  D5
  W                      E  E  E  E  E  E  Q
|---------------------|-------------------------|
|---------------------|-------------------------|
|-7-------------------|--7--7--7--7--7--7--7----|
|-7-------------------|-------------------------|
|-5-------------------|-------------------------|
|---------------------|-------------------------|
|
| PM---------------|
| E E  E  E E E  E  E    E  E  E  E  E  E  E  E
|---------------------|-------------------------|
|---------------------|-------------------------|
|---------------------|-10-10-10-10-10-10-10-10-|
|---------------------|-------------------------|
|-5-5--5--5-5-5--5--5-|-------------------------|
|---------------------|-------------------------|
|
|-PM--------------------|PM------------------|
| E E  E  E E E  E  E    E  E  E  E  E  E  E  E
|---------------------|-------------------------|
|-6-6-10-10-8-8-10-10-|--6--6-10-10--8--8-10-10-|
|-7-7-10-10-9-9-10-10-|--7--7-10-10--9--9-10-10-|
|---------------------|-------------------------|
|---------------------|-------------------------|
|---------------------|-------------------------|
  E E  E  E E E  E  E    E  E  E  E  E  E  E  E


  Gtrs I, II
  ~~~~~~~~~~~~~~~~~~~~~~~~~~~~
  W                       +W
|-----------------------|-------------------------|
|-----------------------|-------------------------|
|-7---------------------|-(7)---------------------|
|-----------------------|-------------------------|
|-----------------------|-------------------------|
|-----------------------|-------------------------|
|
| Gtr III
|-PM----------------------|PM----------------------
| E E  E  E  E  E  E  E    E  E  E  E  E  E  E  E
|-----------------------|-------------------------|
|-----------------------|-------------------------|
|-7-7-10-10--9--9-10-10-|--7--7-10-10--9--9-10-10-|
|-8-8-12-12-10-10-12-12-|--8--8-12-12-10-10-12-12-|
|-----------------------|-------------------------|
|-----------------------|-------------------------|
  E E  E  E  E  E  E  E    E  E  E  E  E  E  E  E


  A5
  E E E E Q  Q    W
|---------------|-----------------------|
|---------------|-----------------------|
|---------------|-----------------------|
|-2-2-2-2-2-----|-----------------------|
|-0-0-0-0-0-----|-0---------------------|
|---------------|-----------------------|
|
|-----------------PM-----------------|
| W               E E  E  E  E  E  E  E
|---------------|-----------------------|
|---------------|-8-8-11-11-10-10-11-11-|
|---------------|-----------------------|
|---------------|-8-8-12-12-10-10-12-12-|
|---------------|-----------------------|
|---------------|-----------------------|
                  E E  E  E  E  E  E  E


                              2nd Verse
                               (D)     (F)
                               Gtrs I, II
                               PM---------------
  +H..                   E     E E E E E E E E
|--------------------------||------------------|
|--------------------------||o-----------------|
|--------------------------||------------------|
|--------------------------||------------------|
|-(0)----------------------||o-5-5-5-5-8-8-8-8-|
|--------------------------||------------------|
|
|-|PM-------------------|
|  E   E  E  E  E  E  E  E     W
|--------------------------||------------------|
|--8---8-11-11-10-10-11-11-||o-----------------|
|--------------------------||------------------|
|--8---8-12-12-10-10-12-12-||------------------|
|--------------------------||o-----------------|
|--------------------------||------------------|
   E   E  E  E  E  E  E  E


  (E)     (F)       (D)     (F)
 ---------------------------------|
  E E E E E E E E   E E E E E E E E
|-----------------|-----------------|
|-----------------|-----------------|
|-----------------|-----------------|
|-----------------|-----------------|
|-7-7-7-7-8-8-8-8-|-5-5-5-5-8-8-8-8-|
|-----------------|-----------------|
|
| W                 W
|-----------------|-----------------|
|-----------------|-----------------|
|-----------------|-----------------|
|-----------------|-----------------|
|-----------------|-----------------|
|-----------------|-----------------|


  (E)     (F)       (Bb)    (F)
  PM---------------------------------
  E E E E E E E E   E E E E E E E E
|-----------------|-----------------|
|-----------------|-----------------|
|-----------------|-----------------|
|-----------------|-----------------|
|-7-7-7-7-8-8-8-8-|---------8-8-8-8-|
|-----------------|-6-6-6-6---------|


  (E)     (F)       (G)
 ----------------------------------------|
  E E E E E E E E    E  E  E  E  E  E  E  E
|-----------------|-------------------------|
|-----------------|-------------------------|
|-----------------|-------------------------|
|-----------------|-------------------------|
|-7-7-7-7-8-8-8-8-|-10-10-10-10-10-10-10-10-|
|-----------------|-------------------------|


                      Pre-Chorus
  C5        F5         Bm
                       Gtr IV
   W                   H.           Q     W                 W
                       |
                       /

                       PM-------------------------------------------------|
   Q   H     +Q        E  E E E E E E E   E E E E E E E E   E E E E E E E E
|-------------------||------------------|-----------------|-----------------|
|------------------o||------------------|-----------------|-----------------|
|-----10----(10)\---||------------------|-----------------|-----------------|
|-10--10----(10)\---||------------------|-----------------|-----------------|
|-10---8-----(8)\--o||------------------|-----------------|-----------------|
|--8----------------||-7--7-7-7-7-7-7-7-|-7-7-7-7-7-7-7-7-|-7-7-7-7-7-7-7-7-|


                    F/D                                   F/C
  W                 H       +E Q.       W                 H       +E Q.
                    |        |                            |        |
                    /        /                            /        /

  PM----------------------------------------------------------------------|
  E E E E E E E E   E E E E  E E  E E   E E E E E E E E   E E E E  E E  E E
|-----------------|-------------------|-----------------|-------------------|
|-----------------|-------------------|-----------------|-------------------|
|-----------------|-------------------|-----------------|-------------------|
|-----------------|-------------------|-----------------|-------------------|
|-----------------|-5-5-5-5--5-5--5-5-|-5-5-5-5-5-5-5-5-|-5-5-5-5--5-5--5-5-|
|-7-7-7-7-7-7-7-7-|-------------------|-----------------|-------------------|


                    Bb
  W                 H.           Q     W                 W
                    |
                    /

  PM-------------------------------------------------------------------|
  E E E E E E E E   E  E E E E E E E   E E E E E E E E   E E E E E E E E
|-----------------|------------------|-----------------|-----------------|
|-----------------|------------------|-----------------|-----------------|
|-----------------|------------------|-----------------|-----------------|
|-----------------|------------------|-----------------|-----------------|
|-5-5-5-5-5-5-5-5-|------------------|-----------------|-----------------|
|-----------------|-6--6-6-6-6-6-6-6-|-6-6-6-6-6-6-6-6-|-6-6-6-6-6-6-6-6-|


                                                 Chorus
                    Gm                            D5
  W                 H.        Q    W              W
                    |
                    /

  PM------------|
  E E E E E E E E   Q   Q  Q  Q    Q  Q  Q  Q     W
|-----------------|--------------|-------------||---------------------|
|-----------------|--------------|-------------||---------------------|
|-----------------|--------------|-------------||-7-------------------|
|-----------------|--------------|-------------||-7-------------------|
|-----------------|-5---5--5--5--|-5--5--5--3--||-5-------------------|
|-6-6-6-6-6-6-6-6-|-3---3--3--3--|-3--3--------||---------------------|
|
|                                                 Gtr II
| W                 W              W              W
|-----------------|--------------|-------------||---------------------|
|-----------------|--------------|-------------||---------------------|
|-----------------|--------------|-------------||-7-------------------|
|-----------------|--------------|-------------||-7-------------------|
|-----------------|--------------|-------------||-5-------------------|
|-----------------|--------------|-------------||---------------------|
|
|                                                 Gtr III
|                                                 PM---------------|
| W                 W              W              E E  E  E E E  E  E
|-----------------|--------------|-------------||---------------------|
|-----------------|--------------|-------------||---------------------|
|-----------------|--------------|-------------||-7-7-10-10-9-9-10-10-|
|-----------------|--------------|-------------||---------------------|
|-----------------|--------------|-------------||---------------------|
|-----------------|--------------|-------------||---------------------|


                          A5
  +W                      W
|-----------------------|---------------------|
|-----------------------|---------------------|
|-(7)-------------------|---------------------|
|-(7)-------------------|-7-------------------|
|-(5)-------------------|-7-------------------|
|-----------------------|-5-------------------|
|
| +W                      W
|-----------------------|---------------------|
|-----------------------|---------------------|
|-(7)-------------------|---------------------|
|-(7)-------------------|-7-------------------|
|-(5)-------------------|-7-------------------|
|-----------------------|-5-------------------|
|
|  PM------------------------------------------
|  E  E  E  E E E  E  E   E E  E  E E E  E  E
|-----------------------|---------------------|
|-----------------------|---------------------|
|--7--7-10-10-9-9-10-10-|---------------------|
|-----------------------|-7-7-10-10-9-9-10-10-|
|-----------------------|---------------------|
|-----------------------|---------------------|


                          Bb5
   ~~~
   W                      W
|-----------------------|-----------------------|
|-----------------------|-----------------------|
|-----------------------|-----------------------|
|--7--------------------|-8---------------------|
|-----------------------|-8---------------------|
|-----------------------|-6---------------------|
|
| +W                      W
|-----------------------|-----------------------|
|-----------------------|-----------------------|
|-----------------------|-----------------------|
|-(7)-------------------|-8---------------------|
|-(7)-------------------|-8---------------------|
|-(5)-------------------|-6---------------------|
|
|--------------------------------------------|
|  E  E  E  E E E  E  E   E E  E  E  E  E  E  E
|-----------------------|-----------------------|
|-----------------------|-----------------------|
|-----------------------|-----------------------|
|--7--7-10-10-9-9-10-10-|-8-8-12-12-10-10-12-12-|
|-----------------------|-----------------------|
|-----------------------|-----------------------|


  C5                 D
                     PM---------------|
   W                 E E  E  E E E  E  E
|------------------|---------------------|
|------------------|---------------------|
|------------------|---------------------|
|-10---------------|---------------------|
|-10---------------|-5-5--5--5-5-5--5--5-|
|--8---------------|---------------------|
|
|                    PM-------------------
|  W                 E E  E  E E E  E  E
|------------------|---------------------|
|------------------|---------------------|
|------------------|---------------------|
|-10---------------|---------------------|
|-10---------------|-5-5--5--5-5-5--5--5-|
|--8---------------|---------------------|
|
|  PM-------------------------------------
|  E E E E E E E E   E E  E  E E E  E  E
|------------------|---------------------|
|------------------|---------------------|
|--5-5-9-9-7-7-9-9-|-7-7-10-10-9-9-10-10-|
|------------------|---------------------|
|------------------|---------------------|
|------------------|---------------------|


                        Bb5
                        ~
  Q    Q    Q    Q      W
|---------------------|-----------------------|
|---------------------|-----------------------|
|-7---------7----7----|-7---------------------|
|------7--------------|-----------------------|
|---------------------|-----------------------|
|---------------------|-----------------------|
|
|------------------|
| E E  E  E E E  E  E   W
|---------------------|-----------------------|
|---------------------|-----------------------|
|---------------------|-3---------------------|
|---------------------|-3---------------------|
|-5-5--0--0-5-5--0--0-|-1---------------------|
|---------------------|-----------------------|
|
|------------------------------------------|
| E E  E  E E E  E  E   E E  E  E  E  E  E  E
|---------------------|-----------------------|
|---------------------|-----------------------|
|-7-7-10-10-9-9-10-10-|-----------------------|
|---------------------|-8-8-12-12-10-10-12-12-|
|---------------------|-----------------------|
|---------------------|-----------------------|


                            A
   ~~~                      PM----|
  +W                        E E E E Q  Q
|-------------------------|---------------|
|-------------------------|---------------|
|-(7)---------------------|---------------|
|-------------------------|---------------|
|-------------------------|-0-0-0-0-0-----|
|-------------------------|---------------|
|
|                           PM----|
| +W                        E E E E Q  Q
|-------------------------|---------------|
|-------------------------|---------------|
|-(3)---------------------|---------------|
|-(3)---------------------|---------------|
|-(1)---------------------|-0-0-0-0-0-----|
|-------------------------|---------------|
|
|  PM------------------|
|  E  E  E  E  E  E  E  E   W
|-------------------------|---------------|
|-------------------------|---------------|
|-------------------------|---------------|
|--8--8-12-12-10-10-12-12-|---------------|
|-------------------------|---------------|
|-------------------------|---------------|


  W                 +H..             E
|-----------------|--------------------|
|-----------------|--------------------|
|-----------------|--------------------|
|-----------------|--------------------|
|-0---------------|-(0)----------------|
|-----------------|--------------------|
|
| W                 +W
|-----------------|--------------------|
|-----------------|--------------------|
|-----------------|--------------------|
|-----------------|--------------------|
|-0---------------|-(0)----------------|
|-----------------|--------------------|
|
| PM---------------------------------|
| E E E E E E E E    E   E E E E E E E
|-----------------|--------------------|
|-----------------|--------------------|
|-----------------|--------------------|
|-5-5-8-8-7-7-8-8-|--5---5-8-8-7-7-8-8-|
|-----------------|--------------------|
|-----------------|--------------------|


  D5
  W                     +W
|---------------------|-----------------------|
|---------------------|-----------------------|
|-7-------------------|-(7)-------------------|
|-7-------------------|-(7)-------------------|
|-5-------------------|-(5)-------------------|
|---------------------|-----------------------|
|
| W                     +W
|---------------------|-----------------------|
|---------------------|-----------------------|
|-7-------------------|-(7)-------------------|
|-7-------------------|-(7)-------------------|
|-5-------------------|-(5)-------------------|
|---------------------|-----------------------|
|
|-PM--------------------|PM--------------------
| E E  E  E E E  E  E    E  E  E  E E E  E  E
|---------------------|-----------------------|
|-6-6-10-10-8-8-10-10-|--6--6-10-10-8-8-10-10-|
|-7-7-10-10-9-9-10-10-|--7--7-10-10-9-9-10-10-|
|---------------------|-----------------------|
|---------------------|-----------------------|
|---------------------|-----------------------|
  E E  E  E E E  E  E    E  E  E  E E E  E  E


  A5
                         ~~~
  W                      W
|---------------------|-----------------------|
|---------------------|-----------------------|
|---------------------|-----------------------|
|-7-------------------|--5--------------------|
|-7-------------------|-----------------------|
|-5-------------------|-----------------------|
|
| W                     +W
|---------------------|-----------------------|
|---------------------|-----------------------|
|---------------------|-----------------------|
|-7-------------------|-(7)-------------------|
|-7-------------------|-(7)-------------------|
|-5-------------------|-(5)-------------------|
|
|-PM--------------------|PM----------------|
| E E  E  E E E  E  E    E  E  E  E E E  E  E
|---------------------|-----------------------|
|---------------------|-----------------------|
|-5-5--9--9-7-7--9--9-|--5--5--9--9-7-7--9--9-|
|-7-7-10-10-9-9-10-10-|--7--7-10-10-9-9-10-10-|
|---------------------|-----------------------|
|---------------------|-----------------------|
  E E  E  E E E  E  E    E  E  E  E E E  E  E


  Bb5                     C5
  W                        W
|-----------------------|------------------|
|-----------------------|------------------|
|-----------------------|------------------|
|-8---------------------|-10---------------|
|-8---------------------|-10---------------|
|-6---------------------|--8---------------|
|
| W                        W
|-----------------------|------------------|
|-----------------------|------------------|
|-----------------------|------------------|
|-8---------------------|-10---------------|
|-8---------------------|-10---------------|
|-6---------------------|--8---------------|
|
|-PM----------------------|PM---------------
| E E  E  E  E  E  E  E    E E E E E E E E
|-----------------------|------------------|
|-----------------------|--5-5-8-8-6-6-8-8-|
|-7-7-10-10--9--9-10-10-|--5-5-9-9-7-7-9-9-|
|-8-8-12-12-10-10-12-12-|------------------|
|-----------------------|------------------|
|-----------------------|------------------|
  E E  E  E  E  E  E  E    E E E E E E E E


  D5
                                           ~~
  W                      E  E  E  E  E  E  Q
|---------------------|-------------------------|
|---------------------|-------------------------|
|-7-------------------|--7--7--7--7--7--7--7----|
|-7-------------------|-------------------------|
|-5-------------------|-------------------------|
|---------------------|-------------------------|
|
| PM---------------|                       ~~
| E E  E  E E E  E  E    E  E  E  E  E  E  Q
|---------------------|-------------------------|
|---------------------|-------------------------|
|---------------------|-10-10-10-10-10-10-10----|
|---------------------|-------------------------|
|-5-5--5--5-5-5--5--5-|-------------------------|
|---------------------|-------------------------|
|
|-PM--------------------|PM------------------|
| E E  E  E E E  E  E    E  E  E  E  E  E  E  E
|---------------------|-------------------------|
|-6-6-10-10-8-8-10-10-|--6--6-10-10--8--8-10-10-|
|-7-7-10-10-9-9-10-10-|--7--7-10-10--9--9-10-10-|
|---------------------|-------------------------|
|---------------------|-------------------------|
|---------------------|-------------------------|
  E E  E  E E E  E  E    E  E  E  E  E  E  E  E


  ~~~~~~~~~~~~~~~~~~~~~~~~~~~~
  W                       +W
|-----------------------|-------------------------|
|-----------------------|-------------------------|
|-7---------------------|-(7)---------------------|
|-----------------------|-------------------------|
|-----------------------|-------------------------|
|-----------------------|-------------------------|
|
| ~~~~~~~~~~~~~~~~~~~~~~~~~~~~
| W                       +W
|-----------------------|-------------------------|
|-----------------------|-------------------------|
|-7---------------------|-(7)---------------------|
|-----------------------|-------------------------|
|-----------------------|-------------------------|
|-----------------------|-------------------------|
|
|-PM----------------------|PM----------------------
| E E  E  E  E  E  E  E    E  E  E  E  E  E  E  E
|-----------------------|-------------------------|
|-----------------------|-------------------------|
|-7-7-10-10--9--9-10-10-|--7--7-10-10--9--9-10-10-|
|-8-8-12-12-10-10-12-12-|--8--8-12-12-10-10-12-12-|
|-----------------------|-------------------------|
|-----------------------|-------------------------|
  E E  E  E  E  E  E  E    E  E  E  E  E  E  E  E


  A5
  PM----|
  E E E E Q  Q    W
|---------------|-----------------------||
|---------------|-----------------------||
|---------------|-----------------------||
|-2-2-2-2-2-----|-----------------------||
|-0-0-0-0-0-----|-0---------------------||
|---------------|-----------------------||
|
| PM----|
| E E E E Q  Q    W
|---------------|-----------------------||
|---------------|-----------------------||
|---------------|-----------------------||
|-2-2-2-2-2-----|-----------------------||
|-0-0-0-0-0-----|-0---------------------||
|---------------|-----------------------||
|
|-----------------PM-----------------|
| W               E E  E  E  E  E  E  E
|---------------|-----------------------||
|---------------|-8-8-11-11-10-10-11-11-||
|---------------|-----------------------||
|---------------|-8-8-12-12-10-10-12-12-||
|---------------|-----------------------||
|---------------|-----------------------||
                  E E  E  E  E  E  E  E


 Interlude
  F#5               E5   F#5                G5   A5     F#5
 2/4      4/4
  Gtrs I, II
  PM---------------------------|                        PM----|
  Q  Q     Q  Q  Q  Q    E E E E Q  Q    Q  Q  E Q.     E E E E Q  Q
|-------||-------------|---------------|--------------|----------------|
|-------||-------------|---------------|--------------|----------------|
|-------||-------------|---------------|--------------|----------------|
|-------||-------------|---------------|--------------|----------------|
|-4-----||----4-----2--|-4-4-4-4-4-----|----5----7----|-4-4-4-4-4------|
|-2-----||----2-----0--|-2-2-2-2-2-----|----3----5----|-2-2-2-2-2------|


           E5   A5         Bm   Cm   C#m  F#5
  PM-------|                              PM----|
  Q  Q  Q  Q    W          Q.   Q.   Q    E E E E Q  Q
|-------------|----------|--------------|---------------|
|-------------|----------|--------------|---------------|
|-------------|----------|--------------|---------------|
|-------------|-2--------|-0----1----2--|---------------|
|----4-----2--|-0--------|-2----3----4--|-4-4-4-4-4-----|
|----2-----0--|----------|--------------|-2-2-2-2-2-----|
                           Q.   Q.   Q


           E5   F#5                G5   A5     F#5
  PM------------------|                        PM----|
  Q  Q  Q  Q    E E E E Q  Q    Q  Q  E Q.     E E E E Q  Q
|-------------|---------------|--------------|---------------|
|-------------|---------------|--------------|---------------|
|-------------|---------------|--------------|---------------|
|-------------|---------------|--------------|---------------|
|----4-----2--|-4-4-4-4-4-----|----5----7----|-4-4-4-4-4-----|
|----2-----0--|-2-2-2-2-2-----|----3----5----|-2-2-2-2-2-----|


          E5     A5         Bm   Cm   C#m  Em   Fm   F#m  Bm   Cm   C#m
  PM-|    PM
  Q  Q  E Q.     W          Q.   Q.   Q    Q.   Q.   Q    Q.   Q.   Q
|--------------|----------|--------------|--------------|--------------||
|--------------|----------|--------------|--------------|-3----4----5--||
|--------------|----------|--------------|-0----1----2--|-4----5----6--||
|--------------|-7--------|-0----1----2--|-2----3----4--|--------------||
|----4----2----|-7--------|-2----3----4--|--------------|--------------||
|----2----0----|-5--------|--------------|--------------|--------------||
                            Q.   Q.   Q    Q.   Q.   Q    Q.   Q.   Q


                             1st Guitar Solo
  N.C.                        B
                              Gtr II
  |-3-| |-3-| |-3-| |-3-|
  E E E E E E E E E E E E     E E E E E E  E E
|-------------------------||-------------------|
|-3h4p3h4p3h4p3h4p3h4p3h4-||o-7-0-0-8-0-0-10-0-|
|-4h5p4h5p4h5p4h5p4h5p4h5-||-------------------|
|-------------------------||-------------------|
|-------------------------||o------------------|
|-------------------------||-------------------|
| E E E E E E E E E E E E
| |-3-| |-3-| |-3-| |-3-|
|
|                             Gtr I
| W                           E E E E E E  E E
|-------------------------||-------------------|
|-------------------------||o-3-0-0-5-0-0--7-0-|
|-------------------------||-------------------|
|-------------------------||-------------------|
|-------------------------||o------------------|
|-------------------------||-------------------|
|
|                             Gtr III
|                             PM----------------
| W                           E E E E E E  E E
|-------------------------||-------------------|
|-------------------------||o------------------|
|-------------------------||-------------------|
|-------------------------||-------------------|
|-------------------------||o------------------|
|-------------------------||--7-7-7-7-7-7--7-7-|


                     G
  E  E E E E E E E   E E E E E E  E E
|------------------|-7-0-0-9-0-0-10-0-|
|-0-12-0-0-7-0-8-0-|------------------|
|------------------|------------------|
|------------------|------------------|
|------------------|------------------|
|------------------|------------------|
|
| E  E E E E E E E   E E E E E E  E E
|------------------|-3-0-0-5-0-0--7-0-|
|-0--8-0-0-3-0-5-0-|------------------|
|------------------|------------------|
|------------------|------------------|
|------------------|------------------|
|------------------|------------------|
|
|-----------------------------------|
| E  E E E E E E E   E E E E E E  E E
|------------------|------------------|
|------------------|------------------|
|------------------|------------------|
|------------------|------------------|
|------------------|------------------|
|-7--7-7-7-7-7-7-7-|-3-3-3-3-3-3--3-3-|


  A                     B                                     G
   E E  E E  E E  E E   E E E E E E  E E   E  E E E E E E E   E E E E E E  E E
|-14p0-12p0-10p0-12p0-|------------------|------------------|-7-0-0-9-0-0-10-0-|
|---------------------|-7-0-0-8-0-0-10-0-|-0-12-0-0-7-0-8-0-|------------------|
|---------------------|------------------|------------------|------------------|
|---------------------|------------------|------------------|------------------|
|---------------------|------------------|------------------|------------------|
|---------------------|------------------|------------------|------------------|
|
|  E E  E E  E E  E E   E E E E E E  E E   E  E E E E E E E   E E E E E E  E E
|-10p0--9p0--5p0--7p0-|------------------|------------------|-3-0-0-5-0-0--7-0-|
|---------------------|-3-0-0-5-0-0--7-0-|-0--8-0-0-3-0-5-0-|------------------|
|---------------------|------------------|------------------|------------------|
|---------------------|------------------|------------------|------------------|
|---------------------|------------------|------------------|------------------|
|---------------------|------------------|------------------|------------------|
|
|  PM------------------------------------------------------------------------|
|  E E  E E  E E  E E   E E E E E E  E E   E  E E E E E E E   E E E E E E  E E
|---------------------|------------------|------------------|------------------|
|---------------------|------------------|------------------|------------------|
|---------------------|------------------|------------------|------------------|
|---------------------|------------------|------------------|------------------|
|---------------------|------------------|------------------|------------------|
|--5-5--5-5--5-5--5-5-|-7-7-7-7-7-7--7-7-|-7--7-7-7-7-7-7-7-|-3-3-3-3-3-3--3-3-|


  A                      B
   E E  E E  E E  E E     E E E  E E E  E  E
|-14p0-12p0-10p0-12p0-||---------------------|
|---------------------||-15-0-0-14-0-0-15-14-|
|---------------------||---------------------|
|---------------------||---------------------|
|---------------------||---------------------|
|---------------------||---------------------|
|
|  E E  E E  E E  E E     E E E  E E E  E  E
|-10p0--9p0--5p0--7p0-||---------------------|
|---------------------||-12-0-0-10-0-0-12-10-|
|---------------------||---------------------|
|---------------------||---------------------|
|---------------------||---------------------|
|---------------------||---------------------|
|
|  PM-----------------------------------------
|  E E  E E  E E  E E     E E E  E E E  E  E
|---------------------||---------------------|
|---------------------||---------------------|
|---------------------||---------------------|
|---------------------||---------------------|
|---------------------||---------------------|
|--5-5--5-5--5-5--5-5-||--7-7-7--7-7-7--7--7-|


                          G
                    ~~
  E  E  E  E  E  E  Q      E  E  E  E  E  E  E  E
|---14-14-14-14-12------|-------------------------|
|-0----------------14---|-15--0--0-14--0--0-15-14-|
|-----------------------|-------------------------|
|-----------------------|-------------------------|
|-----------------------|-------------------------|
|-----------------------|-------------------------|
|
|                   ~~
| E  E  E  E  E  E  Q      E  E  E  E  E  E  E  E
|---10-10-10-10--9------|-------------------------|
|-0----------------10---|-12--0--0-10--0--0-12-10-|
|-----------------------|-------------------------|
|-----------------------|-------------------------|
|-----------------------|-------------------------|
|-----------------------|-------------------------|
|
|----------------------------------------------|
| E  E  E  E  E  E  E E    E  E  E  E  E  E  E  E
|-----------------------|-------------------------|
|-----------------------|-------------------------|
|-----------------------|-------------------------|
|-----------------------|-------------------------|
|-----------------------|-10-10-10-10-10-10-10-10-|
|-7--7--7--7--7--7--7-7-|-------------------------|


              F#           E
                     ~~
   E  E  E  E  E  E  Q      E E E  E E E  E  E
|----14-14-14-14-12------|---------------------|
|--0----------------14---|-15-0-0-14-0-0-15-14-|
|------------------------|---------------------|
|------------------------|---------------------|
|------------------------|---------------------|
|------------------------|---------------------|
|
|                    ~~
|  E  E  E  E  E  E  Q      E E E  E E E  E  E
|----10-10-10-10--9------|---------------------|
|--0----------------10---|-12-0-0-10-0-0-12-10-|
|------------------------|---------------------|
|------------------------|---------------------|
|------------------------|---------------------|
|------------------------|---------------------|
|
|  PM-------------------------------------------
|  E  E  E  E  E  E  E E    E E E  E E E  E  E
|------------------------|---------------------|
|------------------------|---------------------|
|------------------------|---------------------|
|------------------------|---------------------|
|-10-10-10-10--9--9--9-9-|--7-7-7--7-7-7--7--7-|
|------------------------|---------------------|


                        1.
                         B5      A5      B5
                    ~~
  E  E  E  E  E  E  Q     E E  E E   E E  E E
|---14-14-14-14-12-----|----------------------|
|-0----------------14--|-15p0-14p0--12p0-10p0-|
|----------------------|----------------------|
|----------------------|----------------------|
|----------------------|----------------------|
|----------------------|----------------------|
|
|                   ~~
| E  E  E  E  E  E  Q     E E  E E   E E  E E
|---10-10-10-10--9-----|----------------------|
|-0----------------10--|-12p0-10p0---8p0--7p0-|
|----------------------|----------------------|
|----------------------|----------------------|
|----------------------|----------------------|
|----------------------|----------------------|
|
|---------------|
| E  E  E  E  E  E  Q     Q.     Q.       Q
|----------------------|----------------------|
|----------------------|----------------------|
|----------------------|----------------------|
|-------------------7--|--9------7--------9---|
|-7--7--7--7--7--7-----|--9------7--------9---|
|----------------------|--7------5--------7---|


                      2.
        A5  B5  A5     N.C.
                ~~~~~~~~~~~~~~~~~~~~~~~~~~~~~~~~~~~~~~~~~~~~
   E  E E E E E Q       W              +W               +W
|-------------------||--------------|----------------|----------------|
|--8p=0-7p0-5p0----o||-15-----------|-(15)-----------|-(15)-----------|
|---------------7---||--------------|----------------|----------------|
|-------------------||--------------|----------------|----------------|
|------------------o||--------------|----------------|----------------|
|-------------------||--------------|----------------|----------------|
|
|               ~~~~~~~~~~~~~~~~~~~~~~~~~~~~~~~~~~~~~~~~~~~~
|  E  E E E E E Q       W              +W               +W
|-------------------||--------------|----------------|----------------|
|--5p=0-3p0-2p0----o||-12-----------|-(12)-----------|-(12)-----------|
|---------------4---||--------------|----------------|----------------|
|-------------------||--------------|----------------|----------------|
|------------------o||--------------|----------------|----------------|
|-------------------||--------------|----------------|----------------|
|
| +Q    Q   Q   Q       Q  Q  Q  Q      Q   Q  Q  Q      Q   Q  Q  Q
|-------------------||--------------|----------------|----------------|
|------------------o||--------------|----------------|----------------|
|-------------------||--------------|----------------|----------------|
|-(9)---7---9---7---||--9--7--8-----|---7------------|----------------|
|-(9)---7---9---7--o||-----------9--|-------7--9--5--|---7---4--5--2--|
|-(7)---5---7---5---||--------------|----------------|----------------|


                                                     \2.5
    ~~~~~
   +H..           +E      W          W               W
|----------------------||----------|-------------|-----------|
|-(15)-----------(15)\-||----------|-------------|-----------|
|----------------------||----------|-------------|-----------|
|----------------------||----------|-------------|-----------|
|----------------------||----------|-------------|-----------|
|----------------------||----------|-------------|---0-------|
|
|   ~~~~~                                     ~~~~~~~~~~~~
|  +H..           +E      W          H.       Q     +W
|----------------------||----------|-------------|-----------|
|-(12)-----------(12)\-||----------|---------13--|-(13)------|
|----------------------||----------|-------------|-----------|
|----------------------||----------|-------------|-----------|
|----------------------||----------|-------------|-----------|
|----------------------||----------|-------------|-----------|
|
|   Q    Q  Q  Q          W          W               W
|----------------------||----------|-------------|-----------|
|----------------------||----------|-------------|-----------|
|----------------------||----------|-------------|-----------|
|----------------------||----------|-------------|-----------|
|---4-------2----------||----------|-------------|-----------|
|--------5-----2-------||----------|-------------|-----------|


                    3rd Guitar Solo (Roland)
                            A
                              ~~~~~~~~~~~~~~~~~~
    H     Q  E  E     a      +W
|-----------------||-15b17==(15)---------------|
|--------------12-||---------------------------|
|-----------------||---------------------------|
|-----------------||---------------------------|
|-----------------||---------------------------|
|-----------------||---------------------------|
|
|   ~~~~                      PM----------------
|  +W                         E  E E E E E E E
|-----------------||---------------------------|
|-(13)------------||---------------------------|
|-----------------||---------------------------|
|-----------------||---------------------------|
|-----------------||---------------------------|
|-----------------||----------5--5-5-5-5-5-5-5-|


                        E
 ~~~~~~~
   +W                    Q    E  E  E  E  E  E
|-(15)r---------------|------15-------17-------|
|---------------------|------------------------|
|---------------------|-12------12S14----14S16-|
|---------------------|------------------------|
|---------------------|------------------------|
|---------------------|------------------------|
|
|-------------------------------------------|
|   E   E E E E E E E    E E  E  E  E  E  E  E
|---------------------|------------------------|
|---------------------|------------------------|
|---------------------|------------------------|
|---------------------|------------------------|
|---------------------|--7-7--7--7--7--7--7--7-|
|---5---5-5-5-5-5-5-5-|------------------------|


                               F
                ~~~~~~~~~~~~~~~~~~~~~
                                                |---3---|
   Q    a      +H.              +H.             E  E    E
|-19---19b20==(19)-----------|-(19)r-----------17h19p==17-|
|----------------------------|----------------------------|
|----------------------------|----------------------------|
|----------------------------|----------------------------|
|----------------------------|----------------------------|
|----------------------------|----------------------------|
|
|  PM------------------------------------------------------
|  E E          E  E E E E E     E   E E E E E  E    E
|----------------------------|----------------------------|
|----------------------------|----------------------------|
|----------------------------|----------------------------|
|----------------------------|----------------------------|
|--7-7----------7--7-7-7-7-7-|---8---8-8-8-8-8--8----8----|
|----------------------------|----------------------------|


                        G
   ~~~                   ~~
   H.            E  E    H           Q     Q
|---------------------|-------------15-----------|
|-17------------18p17p|=15----------------15-----|
|---------------------|--------------------------|
|---------------------|--------------------------|
|---------------------|--------------------------|
|---------------------|--------------------------|
|
|--------------------------------------------|
|  E  E E E E E  E  E    E  E  E  E  E  E  E  E
|---------------------|--------------------------|
|---------------------|--------------------------|
|---------------------|--------------------------|
|---------------------|--------------------------|
|--8--8-8-8-8-8--8--8-|-10-10-10-10-10-10-10-10--|
|---------------------|--------------------------|


  G#                  A
                       ~~~
   H        H          H.            E  E
|-14----------------|---------------------|
|-------------------|---------------------|
|----------12-------|-12------------14p12h|
|-------------------|---------------------|
|-------------------|---------------------|
|-------------------|---------------------|
|
|  PM--------------------------------------
|  E E E E  E E E E    E  E E E E E  E  E
|-------------------|---------------------|
|-------------------|---------------------|
|-------------------|---------------------|
|-------------------|---------------------|
|-------------------|---------------------|
|--4-4-4-4--4-4-4-4-|--5--5-5-5-5-5--5--5-|


                           D
     ~~~~~~                              ~~
     H.            a Q      Q   Q   E E  Q
|-([17])-----------------|-------------------|
|------------------------|-10---8------------|
|---14-------------------|----------9p7------|
|------------------------|--------------10---|
|------------------5h8---|-------------------|
|------------------------|-------------------|
|
|------------------------------------------|
|    E   E E E E E   E E    E E E E E E  E E
|------------------------|-------------------|
|------------------------|-------------------|
|------------------------|-------------------|
|------------------------|-------------------|
|------------------------|--5-5-5-5-5-5--5-5-|
|----5---5-5-5-5-5---5-5-|-------------------|


  D                 C                                        B
  ~                                     ~~                    ~~
  W                 E E E E E Q.        H        E  Q.        W
|-----------------|------------------|---------------------|------------------|
|-----------------|------------------|----------13---------|-13---------------|
|-----------------|---------5--------|-14----------14------|------------------|
|-7---------------|-5h7-7-7---7------|---------------------|------------------|
|-----------------|------------------|---------------------|------------------|
|-----------------|------------------|---------------------|------------------|
|
| PM------------------------------------------------------------------------|
| E E E E E E E E   E E E E E E  E E    E E E E  E  E  E E    E E E E E E E E
|-----------------|------------------|---------------------|------------------|
|-----------------|------------------|---------------------|------------------|
|-----------------|------------------|---------------------|------------------|
|-----------------|------------------|---------------------|------------------|
|-5-5-5-5-5-5-5-5-|-3-3-3-3-3-3--3-3-|--3-3-3-3--3--3--3-3-|--2-2-2-2-2-2-2-2-|
|-----------------|------------------|---------------------|------------------|


  G                         A
   ~~                         ~~~~~~~~~~~~~~~~~~
   W                  a      +W
|------------------|-19b20==(19)---------------|
|-17---------------|---------------------------|
|------------------|---------------------------|
|------------------|---------------------------|
|------------------|---------------------------|
|------------------|---------------------------|
|
|  PM-------------------------------------------
|  E E E E E E E E            E  E E E E E E E
|------------------|---------------------------|
|------------------|---------------------------|
|------------------|---------------------------|
|------------------|---------------------------|
|------------------|---------------------------|
|--3-3-3-3-3-3-3-3-|----------5--5-5-5-5-5-5-5-|


                                  E
 ~~~~~~~
   +H.             a      +Q       +Q     +Q     H
|-(19)r-----------19b20==(19)---|-(19)r==(19)---19---------|
|-------------------------------|--------------------------|
|-------------------------------|--------------------------|
|-------------------------------|--------------------------|
|-------------------------------|--------------------------|
|-------------------------------|--------------------------|
|
|------------------------------------------------------|
|   E   E E E E E          E  E     E  E   E  E  E E E E
|-------------------------------|--------------------------|
|-------------------------------|--------------------------|
|-------------------------------|--------------------------|
|-------------------------------|--------------------------|
|-------------------------------|---7--7---7--7--7-7-7-7---|
|---5---5-5-5-5-5----------5--5-|--------------------------|


  E                   F
                       ~~
   H        H          W
|-17-------15-------|-17---------------|
|-------------------|------------------|
|-------------------|------------------|
|-------------------|------------------|
|-------------------|------------------|
|-------------------|------------------|
|
|  PM-----------------------------------
|  E E E E  E E E E    E E E E E E E E
|-------------------|------------------|
|-------------------|------------------|
|-------------------|------------------|
|-------------------|------------------|
|--7-7-7-7--7-7-7-7-|--8-8-8-8-8-8-8-8-|
|-------------------|------------------|


                                 G
   Q.      E  Q    a     +Q       H        H
|-17------19-19---19b20-(19)---|-19-------17-------|
|------------------------------|-------------------|
|------------------------------|-------------------|
|------------------------------|-------------------|
|------------------------------|-------------------|
|------------------------------|-------------------|
|
|------------------------------------------------|
|  E  E E  E  E E         E  E    E E E E  E E E E
|------------------------------|-------------------|
|------------------------------|-------------------|
|------------------------------|-------------------|
|------------------------------|-------------------|
|--8--8-8--8--8-8---------8--8-|-------------------|
|------------------------------|--3-3-3-3--3-3-3-3-|


  G#                  A
                       ~~
   H        H          W
|-15-------13-------|-12---------------|
|-------------------|------------------|
|-------------------|------------------|
|-------------------|------------------|
|-------------------|------------------|
|-------------------|------------------|
|
|  PM-----------------------------------
|  E E E E  E E E E    E E E E E E E E
|-------------------|------------------|
|-------------------|------------------|
|-------------------|------------------|
|-------------------|------------------|
|-------------------|------------------|
|--4-4-4-4--4-4-4-4-|--5-5-5-5-5-5-5-5-|


                         D
   Q.      Q.      Q      E  E  E  E  S  S  S  S  E  E
|-12------13------15---|-12h13p12----------------15-12---|
|----------------------|----------13----------13---------|
|----------------------|-------------12----12------------|
|----------------------|----------------14---------------|
|----------------------|---------------------------------|
|----------------------|---------------------------------|
|
|---------------------------------------------------|
|  E  E E  E  E E  E E    E  E  E  E  E     E     E  E
|----------------------|---------------------------------|
|----------------------|---------------------------------|
|----------------------|---------------------------------|
|----------------------|---------------------------------|
|----------------------|--5--5--5--5--5-----5-----5--5---|
|--5--5-5--5--5-5--5-5-|---------------------------------|


        D                    C
                                   |---3---|
   a     +W                   Q    E  E    E  Q    Q
|-15b17-(15)---------------|--------------12-15---12---|
|--------------------------|---------13----------------|
|--------------------------|------12-------------------|
|--------------------------|-14------------------------|
|--------------------------|---------------------------|
|--------------------------|---------------------------|
|
|         PM--------------------------------------------
|         E  E E E E E E E    E E  E    E     E E  E E
|--------------------------|---------------------------|
|--------------------------|---------------------------|
|--------------------------|---------------------------|
|--------------------------|---------------------------|
|---------5--5-5-5-5-5-5-5-|--3-3--3----3-----3-3--3-3-|
|--------------------------|---------------------------|


                              B
        |---3---|
   Q    E  E    E  Q    Q      +Q     Q    Q    Q
|-17---17p14-----------17---|-(17)---17--------------|
|--------------15-----------|-------------17---------|
|-----------------14--------|------------------17----|
|---------------------------|------------------------|
|---------------------------|------------------------|
|---------------------------|------------------------|
|
|-------------------------------------------------|
|  E E  E    E     E E  E E     E  E  E E  E E  E E
|---------------------------|------------------------|
|---------------------------|------------------------|
|---------------------------|------------------------|
|---------------------------|------------------------|
|--3-3--3----3-----3-3--3-3-|---2--2--2-2--2-2--2-2--|
|---------------------------|------------------------|


                             4th Guitar Solo (Mike)
  G                           E
               ~~~~~~~~~~~~~~~~~~~~~~~~~~~~~~~~~~~~~~~~~~~~~~~
   Q     E  E  H               W
|--------------------------||--------------------------------|
|-15----15h16--------------||-17-----------------------------|
|-------------17-----------||--------------------------------|
|--------------------------||--------------------------------|
|--------------------------||--------------------------------|
|--------------------------||--------------------------------|
|
| Gtr I
|                    \1/                   \1/         \1/
|                  |3|         |-----------6-----------|
|  H.              E Q        +H      E    Q.       E  Q.
|--------------------------||--------------------------------|
|--------------------------||--------------------------------|
|------------------7s9-----||-(9)-----9s==11-------11s12-----|
|--------------------------||--------------------------------|
|--------------------------||--------------------------------|
|--------------------------||--------------------------------|
|
| Gtr III
|  PM---------------------------------------------------------
|  E  E  E  E  E E E     E     E  E E   E      E E     E   E
|--------------------------||--------------------------------|
|--------------------------||--------------------------------|
|--------------------------||--------------------------------|
|--------------------------||--------------------------------|
|--------------------------||--7--7-7---7------7-7-----7---7-|
|--3--3--3--3--3-3-3-----3-||--------------------------------|


  G                 F#       G              E
 ~~~~~~
   +W                                         W
|----------------------------------|----------------------------|
|-(17)-----------------------------|----------------------------|
|----------------------------------|----------------------------|
|----------------------------------|----------------------------|
|----------------------------------|----------------------------|
|----------------------------------|----------------------------|
|
|      \1/
|                                             ~~~~
|   |----------6-----------|
|   E  Q.         H        H          a      +W
|----------------------------------|----------------------------|
|----------------12-------13-------|-15b17==(15)----------------|
|--12s14---------------------------|----------------------------|
|----------------------------------|----------------------------|
|----------------------------------|----------------------------|
|----------------------------------|----------------------------|
|
|------------------------------------------------------------|
|   E       E  E    E E E     E  E            E  E E E E E E E
|----------------------------------|----------------------------|
|----------------------------------|----------------------------|
|----------------------------------|----------------------------|
|----------------------------------|----------------------------|
|--10------10-10----9-9-9----10-10-|----------7--7-7-7-7-7-7-7--|
|----------------------------------|----------------------------|


  G           F#    G       C
  Gtr I
    ~~~~~
   +W                        E  E  E  E  E  E  E  E
|-------------------------|-12----------------------|
|-(15)r-------------------|----15-13-12-------------|
|-------------------------|-------------14-12-11----|
|-------------------------|----------------------14-|
|-------------------------|-------------------------|
|-------------------------|-------------------------|
|
| Gtr III
|   PM-----------------------------------------------
|   E    E  E E E E  E  E    E  E  E  E  E  E  E  E
|-------------------------|-------------------------|
|-------------------------|-------------------------|
|-------------------------|-------------------------|
|-------------------------|-------------------------|
|--10---10-10-9-9-9-10-10-|--7--7--7--7--7--7--7--7-|
|-------------------------|--8--8--8--8--8--8--8--8-|
                             E  E  E  E  E  E  E  E


  G                         B
                             ~~~
   E  E  E  E  E  E  E  E    H.            E  E
|-------------------------|---------------------|
|-------------------------|---------------------|
|-------------------------|---------------------|
|-12-10-------------------|-14------------16p14-|
|-------14-12-10----------|---------------------|
|----------------14-12-10-|---------------------|
|
|--------------------------------------------|
|  E  E  E  E  E  E  E  E    E  E E E E E  E  E
|-------------------------|---------------------|
|-------------------------|---------------------|
|-------------------------|---------------------|
|--------------7--7--7--7-|---------------------|
|-10-10-10-10-10-10-10-10-|--6--6-6-6-6-6--6--6-|
|-------------------------|--7--7-7-7-7-7--7--7-|
   E  E  E  E  E  E  E  E    E  E E E E E  E  E


  Em        F#m   G       E
   ~~~
                           |-------3--------|
   H.              E  E   +H       H        H
|-----------------------|-------------------------|
|-----------------------|-------------------------|
|------------------7s=9-|-(9)-----11-------12-----|
|-13--------------------|-------------------------|
|-----------------------|-------------------------|
|-----------------------|-------------------------|
|
|-|PM----------------------------------------------
|  E   E  E E E E  E  E    E  E E    E E E    E E
|-----------------------|-------------------------|
|-----------------------|-------------------------|
|-----------------------|-------------------------|
|-----------7-7-7--9--9-|-------------------------|
|-10--10-10-9-9-9-10-10-|--7--7-7----7-7-7----7-7-|
|-12--12-12-------------|-------------------------|
   E   E  E E E E  E  E


  G           F#    G          E
   |3|               |3-|        |-------3--------|
   E Q    +H         E  Q       +H       H        H
|----------------------------|--------------------------|
|----------------------------|--------------------------|
|--7s9----(9)--------9s12----|-(12)-----11-------12-----|
|----------------------------|--------------------------|
|----------------------------|--------------------------|
|----------------------------|--------------------------|
|
|-----------------------------------------------------|
|  E    E  E  E E E  E     E     E  E E    E E E    E E
|----------------------------|--------------------------|
|----------------------------|--------------------------|
|----------------------------|--------------------------|
|----------------------------|--------------------------|
|-10---10-10--9-9-9-10----10-|---7--7-7----7-7-7----7-7-|
|----------------------------|--------------------------|


  G        F#    G       C
   ~~
   W                      E  E  E  E  E  E  E  E
|----------------------|-15-12-------------------|
|----------------------|-------13-12-12----------|
|----------------------|----------------12-14-12-|
|-12-------------------|-------------------------|
|----------------------|-------------------------|
|----------------------|-------------------------|
|
|  PM---------------------------------------------
|  E  E  E E E E  E  E    E  E  E  E  E  E  E  E
|----------------------|-------------------------|
|----------------------|-------------------------|
|----------------------|-------------------------|
|----------------------|-------------------------|
|-10-10-10-9-9-9-10-10-|--7--7--7--7--7--7--7--7-|
|----------------------|--8--8--8--8--8--8--8--8-|
                          E  E  E  E  E  E  E  E


  G           F#m           B
   E  E  E  E  E  E  E  E   E  E  E  E  E  E  E  E
|-------------------------|------------------------|
|-12----------------------|------------------------|
|----12-------------------|---12-14p12-------------|
|-------16p12-14p12-16-12-|------------16p12-14p12-|
|-------------------------|------------------------|
|-------------------------|------------------------|
|
|-----------------------------------------------|
|  E  E  E  E  E  E  E  E   E  E  E  E  E  E  E  E
|-------------------------|------------------------|
|-------------------------|------------------------|
|-------------------------|------------------------|
|--------------7--7--7--7-|------------------------|
|-10-10-10-10--9--9--9--9-|-6--6--6--6--6--6--6--6-|
|-------------------------|-7--7--7--7--7--7--7--7-|
   E  E  E  E  E  E  E  E   E  E  E  E  E  E  E  E


  Em       F#m      G       E
   E  E  E  E  E  E  E  E    E  E  E  E  E  E  E  E
|-------------------------|-------------------------|
|-------------------------|-------------------------|
|-14p12-16p12-14p12-------|-14p12-16p12-14p12-------|
|-------------------16-12-|-------------------16-12-|
|-------------------------|-------------------------|
|-------------------------|-------------------------|
|
|-|PM------------------------------------------------
|  E  E  E  E  E  E  E  E    E  E  E  E  E  E  E  E
|-------------------------|-------------------------|
|-------------------------|-------------------------|
|-------------------------|-------------------------|
|-----------7--7--7--9--9-|-------------------------|
|-10-10-10--9--9--9-10-10-|--7--7--7--7--7--7--7--7-|
|-12-12-12----------------|-------------------------|
   E  E  E  E  E  E  E  E


  G        F#       G       E
   E  E  E  E  E  E  E  E    E  E  E  E  E  E  E  E
|-------------------------|-------------------------|
|-------------------------|-------------------------|
|-14p12-16p12-14p12-------|-------16p12-14p12-------|
|-------------------16-12-|-14-12-------------16-12-|
|-------------------------|-------------------------|
|-------------------------|-------------------------|
|
|------------------------------------------------|
|  E  E  E  E  E  E  E  E    E  E  E  E  E  E  E  E
|-------------------------|-------------------------|
|-------------------------|-------------------------|
|-------------------------|-------------------------|
|-------------------------|-------------------------|
|-10-10-10--9--9--9-10-10-|--7--7--7--7--7--7--7--7-|
|-------------------------|-------------------------|


  G        F#       G             C
                                    ~~~~
   E  E  E  E  E  E  E  E    a     +W
|-------------------------|--------------------------|
|-------------------------|-15b17-(15)---------------|
|-------16p12-14p12-14p12-|--------------------------|
|-14-12-------------------|--------------------------|
|-------------------------|--------------------------|
|-------------------------|--------------------------|
|
|  PM-------------------------------------------------
|  E  E  E  E  E  E  E  E           E  E E E E E E E
|-------------------------|--------------------------|
|-------------------------|--------------------------|
|-------------------------|--------------------------|
|-------------------------|--------------------------|
|-10-10-10--9--9--9-10-10-|---------7--7-7-7-7-7-7-7-|
|-------------------------|---------8--8-8-8-8-8-8-8-|
                                    E  E E E E E E E


        G             F#m              B
          ~~~~
                           |---3---|
   a     +H.               E  E    E    E  E  E  E  E  E  E  E
|-------------------------12---------|-15p12-17p12-15p12-14-12-|
|-15b17-(15)-----------------15p==12-|-------------------------|
|------------------------------------|-------------------------|
|------------------------------------|-------------------------|
|------------------------------------|-------------------------|
|------------------------------------|-------------------------|
|
|-----------------------------------------------------------|
|         E   E  E  E E E  E    E       E  E  E  E  E  E  E  E
|------------------------------------|-------------------------|
|------------------------------------|-------------------------|
|------------------------------------|-------------------------|
|---------------------7-7--7----7----|-------------------------|
|--------10--10-10-10-9-9--9----9----|--6--6--6--6--6--6--6--6-|
|------------------------------------|--7--7--7--7--7--7--7--7-|
          E   E  E  E E E  E    E       E  E  E  E  E  E  E  E


                            5th Guitar Solo
  Em       F#m      G        C5
                             Gtr III
   W                          W
                              |
                              /

                              \1/
   E  E  E  E  E  E  E  E     H       Q   Q
|-------------------------||-----------------|
|-15p12-13p12h13p12-------||---------12--10--|
|-------------------14-12-||-14-------7------|
|-------------------------||-12----------10--|
|-------------------------||--7--------------|
|-------------------------||-----------------|
|                             H       Q   Q
|
|-|PM------------------|
|  E  E  E  E  E  E  E  E     W
|-------------------------||-----------------|
|-------------------------||-----------------|
|-------------------------||-----------------|
|-----------7--7--7--9--9-||-----------------|
|-10-10-10--9--9--9-10-10-||-----------------|
|-12-12-12----------------||-----------------|
   E  E  E  E  E  E  E  E


    W                  W
    |                  |
    /                  /

   +Q    Q   Q   Q     H     Q   Q
|-------------------|---------------|
|-(10)--------------|-------12--10--|
|-------12--11--12--|--------7------|
|-(10)---9---7---9--|-10--------10--|
|-------------------|--7------------|
|-------------------|---------------|
|  +Q    Q   Q   Q     H     Q   Q
|
|   W                  W
|-------------------|---------------|
|-------------------|---------------|
|-------------------|---------------|
|-------------------|---------------|
|-------------------|---------------|
|-------------------|---------------|


  C5                  E5
   +W                 W               +W                       W
    |                 |                |                       |
    /                 /                /                       /

                                                       ~~~~
   +Q    Q   Q   Q    H     Q   Q     +Q    Q   a     +H       H     Q   Q
|-------------------|--------------|-------10--10b12-(10)----|--------------|
|-(10)--------------|------12--10--|-(10)-------7b8---(7)----|------12--10--|
|-------12--11--12--|-9-----7---5--|--(5)---7----------------|-9-----7---5--|
|-(10)---9---7---9--|-5------------|-------------------------|-5------------|
|-------------------|--------------|-------------------------|--------------|
|-------------------|--------------|-------------------------|--------------|
   +Q    Q   Q   Q    H     Q   Q     +Q    Q   a     +H       H     Q   Q


  E5                        C5
   +W                        W               +W                  W
    |                        |                |                  |
    /                        /                /                  /

                    ~~~~
   +Q    Q   a     +H        H     Q   Q     +Q    Q   Q   Q     H     Q   Q
|-------10--10b12-(10)----|---------------|-------------------|---------------|
|-(10)---7---7b8---(7)----|-------12--10--|-(10)--------------|-------12--10--|
|--(5)--------------------|--------7------|-------12--11--12--|--------7------|
|-------------------------|-10--------10--|-(10)---9---7---9--|-10--------10--|
|-------------------------|--7------------|-------------------|--7------------|
|-------------------------|---------------|-------------------|---------------|
   +Q    Q   a     +H        H     Q   Q     +Q    Q   Q   Q     H     Q   Q


  C5                  E
   +W                  W
    |
    /

                       ~~~~~~~~~~~~~~~~~
   +Q    Q   Q   Q     W
|-------------------|------------------|
|-(10)--------------|------------------|
|-------12--11--12--|--9---------------|
|-(10)---9---7---9--|------------------|
|-------------------|-10---------------|
|-------------------|------------------|
|  +Q    Q   Q   Q     W
|
|                     Gtr III
|                      PM---------------
|   W                  E E E E E E E E
|-------------------|------------------|
|-------------------|------------------|
|-------------------|------------------|
|-------------------|------------------|
|-------------------|--7-7-7-7-7-7-7-7-|
|-------------------|------------------|


  F#                 G           A
   W                  W
 ~~~~~~~~~~~~~~~~~~~~~~~~~~~~~~~~~~~
   W                  H           H
|------------------|----------------------|
|------------------|-------------10-------|
|-11---------------|-12-------------------|
|--7---------------|--9----------10-------|
|------------------|----------------------|
|------------------|----------------------|
|  W                  H           H
|
|---------------------------------------|
|  E E E E E E E E    E  E  E  E  E E E E
|------------------|----------------------|
|------------------|----------------------|
|------------------|----------------------|
|------------------|--------------7-7-7-7-|
|--9-9-9-9-9-9-9-9-|-10-10-10-10----------|
|------------------|----------------------|


                         Breakdown
  B        C                 C5                           Bb5  F5
                          Gtrs I, II
   ~~~~~~~~~~~
   H        H             Q  H.        +W           +E  E Q.    Q.
|----------------------||------------|------------|------------------|
|-12-------13----------||------------|------------|------------------|
|--7--------9----------||----5-------|-(5)--------|-(5)--------10----|
|----------------------||----5-------|-(5)--------|-(5)---8----10----|
|----------------------||----3-------|-(3)--------|-(3)---8-----8----|
|----------------------||------------|------------|-------6----------|
|  H        H
|
|  PM---------------|
|  E E E E  E  E  E  E    W             W            W
|----------------------||------------|------------|------------------|
|----------------------||------------|------------|------------------|
|----------------------||------------|------------|------------------|
|--9-9-9-9-10-10-10-10-||------------|------------|------------------|
|----------------------||------------|------------|------------------|
|----------------------||------------|------------|------------------|


  Eb5  D5   Bb5     C5                           Bb5  F5
  Q.   Q.   Q    Q  H.        +W           +E  E Q.    Q.
|--------------|------------|------------|------------------|
|--------------|------------|------------|------------------|
|-8----7-------|----5-------|-(5)--------|-(5)--------10----|
|-8----7----8--|----5-------|-(5)--------|-(5)---8----10----|
|-6----5----8--|----3-------|-(3)--------|-(3)---8-----8----|
|-----------6--|------------|------------|-------6----------|


  Eb5  D5   Bb5     G#5
                                           ~
  Q.   Q.   Q    Q  H.        +W           W
|--------------|------------|------------|------|
|--------------|------------|------------|------|
|-8----7-------|------------|------------|------|
|-8----7----8--|----6-------|-(6)--------|------|
|-6----5----8--|----6-------|-(6)--------|-8----|
|-----------6--|----4-------|-(4)--------|------|


                                       Outro-Chorus
               G5                       D5
   ~~~
  +W           Q  Q  H      W           W
|------------|------------|----------||---------------------|
|------------|------------|----------||---------------------|
|------------|------------|----------||-7-------------------|
|------------|------------|----------||-7-------------------|
|-(8)--------|-5----------|----------||-5-------------------|
|------------|-3----------|----------||---------------------|
|
|                                       Gtr III
|                                       PM---------------|
|  W           W            W           E E  E  E E E  E  E
|------------|------------|----------||---------------------|
|------------|------------|----------||---------------------|
|------------|------------|----------||-7-7-10-10-9-9-10-10-|
|------------|------------|----------||---------------------|
|------------|------------|----------||---------------------|
|------------|------------|----------||---------------------|


                          A5
  +W                      W
|-----------------------|---------------------|
|-----------------------|---------------------|
|-(7)-------------------|---------------------|
|-(7)-------------------|-7-------------------|
|-(5)-------------------|-7-------------------|
|-----------------------|-5-------------------|
|
| Gtr I
| +W                      W
|-----------------------|---------------------|
|-----------------------|---------------------|
|-(7)-------------------|---------------------|
|-(7)-------------------|-7-------------------|
|-(5)-------------------|-7-------------------|
|-----------------------|-5-------------------|
|
| Gtr III
|  PM------------------------------------------
|  E  E  E  E E E  E  E   E E  E  E E E  E  E
|-----------------------|---------------------|
|-----------------------|---------------------|
|--7--7-10-10-9-9-10-10-|---------------------|
|-----------------------|-7-7-10-10-9-9-10-10-|
|-----------------------|---------------------|
|-----------------------|---------------------|


                          Bb5
  +W                      W
|-----------------------|-----------------------|
|-----------------------|-----------------------|
|-----------------------|-----------------------|
|-(7)-------------------|-8---------------------|
|-(7)-------------------|-8---------------------|
|-(5)-------------------|-6---------------------|
|
|  ~~~
|  W                      W
|-----------------------|-----------------------|
|-----------------------|-----------------------|
|-----------------------|-----------------------|
|--7--------------------|-8---------------------|
|-----------------------|-8---------------------|
|-----------------------|-6---------------------|
|
|--------------------------------------------|
|  E  E  E  E E E  E  E   E E  E  E  E  E  E  E
|-----------------------|-----------------------|
|-----------------------|-----------------------|
|-----------------------|-----------------------|
|--7--7-10-10-9-9-10-10-|-8-8-12-12-10-10-12-12-|
|-----------------------|-----------------------|
|-----------------------|-----------------------|


  C5                 D
                     PM-------------------
   W                 E E  E  E E E  E  E
|------------------|---------------------|
|------------------|---------------------|
|------------------|---------------------|
|-10---------------|---------------------|
|-10---------------|-5-5--5--5-5-5--5--5-|
|--8---------------|---------------------|
|
|                    PM---------------|
|  W                 E E  E  E E E  E  E
|------------------|---------------------|
|------------------|---------------------|
|------------------|---------------------|
|-10---------------|---------------------|
|-10---------------|-5-5--5--5-5-5--5--5-|
|--8---------------|---------------------|
|
|  PM-------------------------------------
|  E E E E E E E E   E E  E  E E E  E  E
|------------------|---------------------|
|------------------|---------------------|
|--5-5-9-9-7-7-9-9-|-7-7-10-10-9-9-10-10-|
|------------------|---------------------|
|------------------|---------------------|
|------------------|---------------------|


                        Bb5
 ------------------|
  E E  E  E E E  E  E   W
|---------------------|-----------------------|
|---------------------|-----------------------|
|---------------------|-3---------------------|
|---------------------|-3---------------------|
|-5-5--0--0-5-5--0--0-|-1---------------------|
|---------------------|-----------------------|
|
|                       ~
| Q    Q    Q    Q      W
|---------------------|-----------------------|
|---------------------|-----------------------|
|-7---------7----7----|-7---------------------|
|------7--------------|-----------------------|
|---------------------|-----------------------|
|---------------------|-----------------------|
|
|------------------------------------------|
| E E  E  E E E  E  E   E E  E  E  E  E  E  E
|---------------------|-----------------------|
|---------------------|-----------------------|
|-7-7-10-10-9-9-10-10-|-----------------------|
|---------------------|-8-8-12-12-10-10-12-12-|
|---------------------|-----------------------|
|---------------------|-----------------------|


                            A
                            PM----|
  +W                        E E E E Q  Q
|-------------------------|---------------|
|-------------------------|---------------|
|-(3)---------------------|---------------|
|-(3)---------------------|---------------|
|-(1)---------------------|-0-0-0-0-0-----|
|-------------------------|---------------|
|
|  ~~~                      PM----|
| +W                        E E E E Q  Q
|-------------------------|---------------|
|-------------------------|---------------|
|-(7)---------------------|---------------|
|-------------------------|---------------|
|-------------------------|-0-0-0-0-0-----|
|-------------------------|---------------|
|
|  PM--------------------------------------
|  E  E  E  E  E  E  E  E   W
|-------------------------|---------------|
|-------------------------|---------------|
|-------------------------|---------------|
|--8--8-12-12-10-10-12-12-|---------------|
|-------------------------|---------------|
|-------------------------|---------------|


  W                 +W
|-----------------|--------------------|
|-----------------|--------------------|
|-----------------|--------------------|
|-----------------|--------------------|
|-0---------------|-(0)----------------|
|-----------------|--------------------|
|
| W                 +H..             E
|-----------------|--------------------|
|-----------------|--------------------|
|-----------------|--------------------|
|-----------------|--------------------|
|-0---------------|-(0)----------------|
|-----------------|--------------------|
|
|------------------------------------|
| E E E E E E E E    E   E E E E E E E
|-----------------|--------------------|
|-----------------|--------------------|
|-----------------|--------------------|
|-5-5-8-8-7-7-8-8-|--5---5-8-8-7-7-8-8-|
|-----------------|--------------------|
|-----------------|--------------------|


  D5
  W                     +W
|---------------------|-----------------------|
|---------------------|-----------------------|
|-7-------------------|-(7)-------------------|
|-7-------------------|-(7)-------------------|
|-5-------------------|-(5)-------------------|
|---------------------|-----------------------|
|
| W                     +W
|---------------------|-----------------------|
|---------------------|-----------------------|
|-7-------------------|-(7)-------------------|
|-7-------------------|-(7)-------------------|
|-5-------------------|-(5)-------------------|
|---------------------|-----------------------|
|
|-PM-------------------------------------------
| E E  E  E E E  E  E    E  E  E  E E E  E  E
|---------------------|-----------------------|
|-6-6-10-10-8-8-10-10-|--6--6-10-10-8-8-10-10-|
|-7-7-10-10-9-9-10-10-|--7--7-10-10-9-9-10-10-|
|---------------------|-----------------------|
|---------------------|-----------------------|
|---------------------|-----------------------|
  E E  E  E E E  E  E    E  E  E  E E E  E  E


  A5
  W                     +W
|---------------------|-----------------------|
|---------------------|-----------------------|
|---------------------|-----------------------|
|-7-------------------|-(7)-------------------|
|-7-------------------|-(7)-------------------|
|-5-------------------|-(5)-------------------|
|
|                        ~~~
| W                      W
|---------------------|-----------------------|
|---------------------|-----------------------|
|---------------------|-----------------------|
|-7-------------------|--5--------------------|
|-7-------------------|-----------------------|
|-5-------------------|-----------------------|
|
|------------------------------------------|
| E E  E  E E E  E  E    E  E  E  E E E  E  E
|---------------------|-----------------------|
|---------------------|-----------------------|
|-5-5--9--9-7-7--9--9-|--5--5--9--9-7-7--9--9-|
|-7-7-10-10-9-9-10-10-|--7--7-10-10-9-9-10-10-|
|---------------------|-----------------------|
|---------------------|-----------------------|
  E E  E  E E E  E  E    E  E  E  E E E  E  E


  Bb5                     C5
  W                        W
|-----------------------|------------------|
|-----------------------|------------------|
|-----------------------|------------------|
|-8---------------------|-10---------------|
|-8---------------------|-10---------------|
|-6---------------------|--8---------------|
|
| W                        W
|-----------------------|------------------|
|-----------------------|------------------|
|-----------------------|------------------|
|-8---------------------|-10---------------|
|-8---------------------|-10---------------|
|-6---------------------|--8---------------|
|
|-PM----------------------------------------
| E E  E  E  E  E  E  E    E E E E E E E E
|-----------------------|------------------|
|-----------------------|--5-5-8-8-6-6-8-8-|
|-7-7-10-10--9--9-10-10-|--5-5-9-9-7-7-9-9-|
|-8-8-12-12-10-10-12-12-|------------------|
|-----------------------|------------------|
|-----------------------|------------------|
  E E  E  E  E  E  E  E    E E E E E E E E


  D
  PM---------------|                       ~~
  E E  E  E E E  E  E    E  E  E  E  E  E  Q
|---------------------|-------------------------|
|---------------------|-------------------------|
|---------------------|-10-10-10-10-10-10-10----|
|---------------------|-------------------------|
|-5-5--5--5-5-5--5--5-|-------------------------|
|---------------------|-------------------------|
|
|                                          ~~
| W                      E  E  E  E  E  E  Q
|---------------------|-------------------------|
|---------------------|-------------------------|
|-7-------------------|--7--7--7--7--7--7--7----|
|-7-------------------|-------------------------|
|-5-------------------|-------------------------|
|---------------------|-------------------------|
|
|--------------------------------------------|
| E E  E  E E E  E  E    E  E  E  E  E  E  E  E
|---------------------|-------------------------|
|-6-6-10-10-8-8-10-10-|--6--6-10-10--8--8-10-10-|
|-7-7-10-10-9-9-10-10-|--7--7-10-10--9--9-10-10-|
|---------------------|-------------------------|
|---------------------|-------------------------|
|---------------------|-------------------------|
  E E  E  E E E  E  E    E  E  E  E  E  E  E  E


  ~~~~~~~~~~~~~~~~~~~~~~~~~~~~
  W                       +W
|-----------------------|-------------------------|
|-----------------------|-------------------------|
|-7---------------------|-(7)---------------------|
|-----------------------|-------------------------|
|-----------------------|-------------------------|
|-----------------------|-------------------------|
|
| ~~~~~~~~~~~~~~~~~~~~~~~~~~~~
| W                       +W
|-----------------------|-------------------------|
|-----------------------|-------------------------|
|-7---------------------|-(7)---------------------|
|-----------------------|-------------------------|
|-----------------------|-------------------------|
|-----------------------|-------------------------|
|
|-PM-----------------------------------------------
| E E  E  E  E  E  E  E    E  E  E  E  E  E  E  E
|-----------------------|-------------------------|
|-----------------------|-------------------------|
|-7-7-10-10--9--9-10-10-|--7--7-10-10--9--9-10-10-|
|-8-8-12-12-10-10-12-12-|--8--8-12-12-10-10-12-12-|
|-----------------------|-------------------------|
|-----------------------|-------------------------|
  E E  E  E  E  E  E  E    E  E  E  E  E  E  E  E


  C5
  W                 +W
|-----------------|-------------------|
|-----------------|-------------------|
|-5---------------|-(5)---------------|
|-5---------------|-(5)---------------|
|-3---------------|-(3)---------------|
|-----------------|-------------------|
|
| W                 +W
|-----------------|-------------------|
|-----------------|-------------------|
|-5---------------|-(5)---------------|
|-5---------------|-(5)---------------|
|-3---------------|-(3)---------------|
|-----------------|-------------------|
|
|-----------------------------------|
| E E E E E E E E    E  E E E E E E E
|-----------------|-------------------|
|-5-5-8-8-6-6-8-8-|--5--5-8-8-6-6-8-8-|
|-5-5-9-9-7-7-9-9-|--5--5-9-9-7-7-9-9-|
|-----------------|-------------------|
|-----------------|-------------------|
|-----------------|-------------------|
  E E E E E E E E    E  E E E E E E E


  Bb5
  W                       +W
|-----------------------|-------------------------|
|-----------------------|-------------------------|
|-----------------------|-------------------------|
|-8---------------------|-(8)---------------------|
|-8---------------------|-(8)---------------------|
|-6---------------------|-(6)---------------------|
|
| W                       +W
|-----------------------|-------------------------|
|-----------------------|-------------------------|
|-----------------------|-------------------------|
|-8---------------------|-(8)---------------------|
|-8---------------------|-(8)---------------------|
|-6---------------------|-(6)---------------------|
|
|-PM-----------------------------------------------
| E E  E  E  E  E  E  E    E  E  E  E  E  E  E  E
|-----------------------|-------------------------|
|-----------------------|-------------------------|
|-7-7-10-10--9--9-10-10-|--7--7-10-10--9--9-10-10-|
|-8-8-12-12-10-10-12-12-|--8--8-12-12-10-10-12-12-|
|-----------------------|-------------------------|
|-----------------------|-------------------------|
  E E  E  E  E  E  E  E    E  E  E  E  E  E  E  E


  PM-------------------------------------|
  E E  E  E E E  E  E   E E  E  E E E  E  E
|---------------------|---------------------|
|---------------------|---------------------|
|---------------------|---------------------|
|-----------5-5--7--7-|------7--7------7--7-|
|-5-5--8--8-----------|-5-5-------8-8-------|
|---------------------|---------------------|
|
| PM-------------------------------------|
| E E  E  E E E  E  E   E E  E  E E E  E  E
|---------------------|---------------------|
|---------------------|---------------------|
|---------------------|---------------------|
|---------------------|---------------------|
|-5-5--8--8-7-7--8--8-|-5-5--8--8-7-7--8--8-|
|---------------------|---------------------|
|
|----------------------------------------|
| E E  E  E E E  E  E   E E  E  E E E  E  E
|---------------------|---------------------|
|-6-6-10-10-8-8-10-10-|-6-6-10-10-8-8-10-10-|
|-7-7-10-10-9-9-10-10-|-7-7-10-10-9-9-10-10-|
|---------------------|---------------------|
|---------------------|---------------------|
|---------------------|---------------------|
  E E  E  E E E  E  E   E E  E  E E E  E  E


                         Outro
  Bb         C    Bb      N.C.
  Gtrs I, II
--------------------------PM------------------------------|
  W          H    H       E E E E E E E E   E E E E E E E E
|----------|-----------||-----------------|-----------------|
|----------|-----------||-----------------|-----------------|
|----------|-----------||-----------------|-----------------|
|----------|-----------||-----------------|-----------------|
|-5--------|-7----5----||-3-2-1-0-3-2-1-0-|-3-2-1-0-3-2-1-0-|
|-6--------|-8----6----||-3-2-1-0-3-2-1-0-|-3-2-1-0-3-2-1-0-|
  W          H    H       E E E E E E E E   E E E E E E E E


--PM----------------------------------PM------------------------------|
  E E E E E E E E   E E E E E E E E   E E E E E E E E   E E E E E E E E
|-----------------|-----------------|-----------------|-----------------|
|-----------------|-----------------|-----------------|-----------------|
|-----------------|-----------------|-----------------|-----------------|
|-----------------|-----------------|-----------------|-----------------|
|-3-2-1-0-3-2-1-0-|-3-2-1-0-3-2-1-0-|-3-2-1-0-3-2-1-0-|-3-2-1-0-3-2-1-0-|
|-3-2-1-0-3-2-1-0-|-3-2-1-0-3-2-1-0-|-3-2-1-0-3-2-1-0-|-3-2-1-0-3-2-1-0-|
  E E E E E E E E   E E E E E E E E   E E E E E E E E   E E E E E E E E


                    A5   G5   F5   D5
--PM------------|
  E E E E E E E E   Q.   Q.   Q    E E E E Q  Q
|-----------------|--------------|---------------*|
|-----------------|--------------|---------------*|
|-----------------|--------------|---------------*|
|-----------------|--------------|-7-7-7-7-7-----*|
|-3-2-1-0-3-2-1-0-|-7----5----3--|-5-5-5-5-5-----*|
|-3-2-1-0-3-2-1-0-|-5----3----1--|---------------*|
  E E E E E E E E



Duration Legend
---------------
W - whole; H - half; Q - quarter; E - 8th; S - 16th; T - 32nd; X - 64th; a - acciaccatura
+ - note tied to previous; . - note dotted; .. - note double dotted
Uncapitalized letters represent notes that are staccato (1/2 duration)
Irregular groupings are notated above the duration line
Duration letters will always appear directly above the note/fret number it represents the
duration for.  Duration letters with no fret number below them represent rests.  Multi-
bar rests are notated in the form Wxn, where n is the number of bars to rest for.  Low
melody durations appear below the staff

Tablature Legend
----------------
 h   - hammer-on
 p   - pull-off
 b   - bend
 pb  - pre-bend
 r   - bend release (if no number after the r, then release immediately)
 /\  - slide into or out of (from/to "nowhere")
 s   - legato slide
 S   - shift slide
 - natural harmonic
[n]  - artificial harmonic
n(n) - tapped harmonic
 ~   - vibrato
 tr  - trill
 T   - tap
 TP  - trem. picking
 PM  - palm muting
\n/  - tremolo bar dip; n = amount to dip
 \n  - tremolo bar down
 n/  - tremolo bar up
/n\  - tremolo bar inverted dip
 =   - hold bend; also acts as connecting device for hammers/pulls
 <> - volume swell (louder/softer)
 x   - on rhythm slash represents muted slash
 o   - on rhythm slash represents single note slash

Misc Legend
-----------
 |  - bar
||  - double bar
||o - repeat start
o|| - repeat end
*|  - double bar (ending)
 :  - bar (freetime)
 $  - Segno
 &  - Coda
Tempo markers -  = BPM(8/16=s8/s16), where s8 = swing 8ths, s16 = swing 16ths

Related for Before The War tab