Song name
# A B C D E F G H I J K L M N O P Q R S T U V W X Y Z

Helloween - Mrs God tab

Help us improve GuitareTab! Take a short survey!
Title: Mrs God
Artist: Helloween
Album: Keeper of seven keys -The Legacy-

by CAMMELLO DA CORSA  cammello_da_corsa@inwind.it

Tuning chords: D# A# F# C# G# C#

                     F                                                  
|----10/20~~~~|----24\0---|--17--22/15--22\15--20\--|----12--19\----|---8----8/9/10/11--|
|-------------|-----------|-------------------------|---------------|-------------------|
|-------------|-----------|-------------------------|---------------|-------------------|
|-------------|-----------|-------------------------|---------------|-------------------|
|-------------|-----------|-------------------------|---------------|-------------------|
|-------------|-----------|-------------------------|---------------|-------------------|

                                          F       F       F      F       F              F
|--12\11\10\9---8--|----/13\8/17~~~~|----20~~~~|--24------22-----20------19--------|----24~~~~|
|------------------|----------------|----------|------22------22-----22------20~~~~|----------|
|------------------|----------------|----------|-----------------------------------|----------|
|------------------|----------------|----------|-----------------------------------|----------|
|------------------|----------------|----------|-----------------------------------|----------|
|------------------|----------------|----------|-----------------------------------|----------|




|----24\0--|----22\0----|----20\0----|
|----------|------------|------------|
|----------|------------|------------|
|----------|------------|------------|
|----------|------------|------------|
|----------|------------|------------|


Guitar Key:
F    - full bend
h    - half bend
~    - vibrato
Tr   - trill
H.   - artificial harmonic
/ \  - slide up/down
P.M. - palm muting
Related for Mrs God tab