Guitaretab - guitar tabs
Song name
# A B C D E F G H I J K L M N O P Q R S T U V W X Y Z

Helloween - Kids Of The Century tab

intro
-----------------------------------------------------------|
-----------------------------------------------------------|
-2---------2---------2---------2---------2---------2-------|
----4-2-4-----4-2-4-----4-2-4-----4-2-4-----4-2-4----4-2-4-|
-----------------------------------------------------------|
-----------------------------------------------------------|

------------------------------------------------------------|
--------------10---12---------------------------------------|
-2------------9----11---------------------------------------|
----4-2-4-----7----9----------------------------------------|
------------------------------------------------------------|
------------------------------------------------------------|

-------------------------------------------------------------|
-------------------------------------------------------------|
----------------------------------12-------------------------|
-7---9-------9-9----------9-------12-------------------------|
-5-/-7-------7-7----------7-------10-------------------------|
--------0-0-------0-0-0-0----0-0-----------------------------|

--------------------------------------------------------------|
--------------------------------------------------------------|
--------------------------12-12-12----------------------------|
-7---9--------9-9---------12-12-12----7-7-7-------------------|
-5-/-7--------7-7---------10-10-10----5-5-5-------------------|
---------0-0-------0-0-0--------------------------------------|
the above is also the verse but at the end of each time its played
you play this afterwards.

-----------------------------------------------------------------|
-----------------------------------------------------------------|
--------------------------------7--5--7--------------------------|
-5---------7---------2nd time---7--5--7------------------7-5-----|
-3-----3---5-----5--------------5--3--5--5-5-5-8-5-5-8-5-----8-5-|
----5---------7--------------------------------------------------|

-------------------------------0-------------------------------|
-------------------------------0-------------------------------|
------7---5---4-----2-----4----0-------------------------------|
-5----7---5---4-----2-----4----2-------------------------------|
-5----5---3---2-----0-----2----2-------------------------------|
-3-----------------------------0-------------------------------|
back to verse then this

chorus
----------------------------------------------------------------|
----------------------------------------------------------------|
-------7-------------------5-----7------------------------------|
-5-----7--------2-4-2------5-----7------------------------------|
-5-----5-----5---------5---3-----5------------------------------|
-3--------------------------------------------------------------|
2nd time round you do this

-----------------------------------------------------------------|
-----------------------------------------------------------------|
-------7------------------5------4-------2----14(dive bar)-------|
--5----7-------2-4-2------5------4-------2-----------------------|
--5----5----5---------5---3------2-------0-----------------------|
--3--------------------------------------------------------------|
repeat the verse again then this

---------------------------------------------------------|
---------------------------------------------------------|
--7------------------------------------------------------|
--5---7---5---4----2----4--------------------------------|
------5---3---2----0----2--------------------------------|
---------------------------------------------------------|

michael's chords for rolands solo
---------------------------------------------------------|
---------------------------------------------------------|
-----------------------2---------------------------------|
--2-----2-----2--------2---------------------------------|
--0--x--0--x--0--------0---------------------------------|
-----------------x-x-3-----------------------------------|

---------------------------------------------------------|
---------------------------------------------------------|
--------------------------9------------------------------|
-9-----9-----9------------9------------------------------|
-7-----7-----7--------(5)-7------------------------------|
-0--x--0--x--0---x-x-------------------------------------|

rolands solo
--------------------17-14--------------------------------|
--------------20b----------17-14-----------15-14-17------|
-9-7--9b-/19----------------------16-14-16-----------14--|
---------------------------------------------------------|
---------------------------------------------------------|
---------------------------------------------------------|

------------15h17p15------15-17-19p17p15-----15----------|
--15-17-19------------19------------------19----19-17-15-|
---------------------------------------------------------|
---------------------------------------------------------|
---------------------------------------------------------|
---------------------------------------------------------|

---------15-----------------19b-r-19-17------------------|
--17-19------19-17-15-17~~~------------------------------|
---------------------------------------------------------|
---------------------------------------------------------|
---------------------------------------------------------|
---------------------------------------------------------|

-----------12-------------------12--------------12--------|
-------12------15p12--------12------15p12-----------15p12-|
--14b------------------14b------------------14b-----------|
----------------------------------------------------------|
----------------------------------------------------------|
----------------------------------------------------------|
[ Tab from: http://www.guitaretab.com/h/helloween/83423.html ]
-----------12------------------------------------------------|
-------12------15p12-----------------------------------------|
--14b-----------------12-14-12-14br14-12---------------------|
-----------------------------------------14-13-12------------|
---------------------------------------------------14-12/10--|
-------------------------------------------------------------|

roland's chords for michael's solo
---------------------------------------------------------|
---------------------------------------------------------|
---------------------------2-----------------------------|
--2-----2-----2------------2-----------------------------|
--0--x--0--x--0------------0-----------------------------|
------------------x-x--3---------------------------------|

---------------------------------------------------------|
---------------------------------------------------------|
---------------------------------------------------------|
--9-----9-----9--------7---9--------------2--------------|
--9-----9-----9--------7---9--------7/9---2--------------|
--7--x--7--x--7----x-x-5---7--------5-7---0--------------|

michael's solo
-15-14-12------------------------------------------------|
------------15-13-12-------------------------------------|
-----------------------14-13-12------------------12------|
---------------------------------14-12--12-13-14---------|
---------------------------------------------------------|
---------------------------------------------------------|

---------------------------------------------------------|
---------------------------------------------------------|
-(12)h13p12------12-13-12------12------12----------------|
-------------14------------14------14--------------------|
---------------------------------------------------------|
---------------------------------------------------------|

---------------------------------------------------------|
-----------------------------------------12--------------|
-----------------------------------------12-------12-14b-|
--14-13-12------12-14-------------12h14-------14---------|
------------14----------12-13-14-------------------------|
---------------------------------------------------------|

--------------------------12-----------------------------|
-----------------12-------12-------12-------12h15p12-----|
-12-----12--14b------14b------14b------14b------------14-|
-----14--------------------------------------------------|
---------------------------------------------------------|
---------------------------------------------------------|

---------------------------------------------------------|
-12------------------------------------------------------|
-----15p4p12------12-14br14---------------14-16-17-------|
--------------14----------------14-16-17-----------------|
---------------------------------------------------------|
---------------------------------------------------------|

---------------------15-17-19-17-15------15--------------|
-----------15-17-19------------------19------19-17-15----|
-14-16-17------------------------------------------------|
---------------------------------------------------------|
---------------------------------------------------------|
---------------------------------------------------------|

---------------------------------------------------------|
---------------------------------------------------------|
17-16-14------14------------------14-16-17/19-17-19b-----|
----------17------17-16-14-16-17-------------------------|
---------------------------------------------------------|
---------------------------------------------------------|

-----0---------------------------0-----------------------|
-----0---------------------------0-----------------------|
-----0---------------------------0--------------------2--|
------------------------------------------------------2--|
-2--------3-2--------2---2-------------3-2---------2--0--|
-0-------------5-3-5-----0------------------5-3-5--------|

----------------------0-----------------------------------|
----------------------0-----------------------------------|
----------------------0-----------------------------------|
-----------------2----------------------------------------|
-3-2---------2---2----------------------------------------|
------5-3-5------0----------------------------------------|

repeat intro/verse then this

---------------------------------------------------------|
---------------------------------------------------------|
---------------------------------------------------------|
--5--------7--------x2---7---------7---------x2----------|
----7-5-7----7-5-7----------9-7-9-----9-7-9--------------|
---------------------------------------------------------|

----------------------------------------------------------|
----------------------------------------------------------|
----------------------------------------------------------|
-10------------10------------x2---------------------------|(2nd time round ad this)
-----12-10-12------12-10-12-------------------------------|
----------------------------------------------------------|

---------------------------------------------------------|
---------------------------------------------------------|
---------------------------------------------------------|
--2---4----(end the riff on a d)-------------------------|
---------------------------------------------------------|
---------------------------------------------------------|

---------------------------------------------------------|
---------------------------------------------------------|
---------------------------------------------------------|
-9-9-9-9-9-9-9----9-9-9-9-9-9---------12-----------------|
-7-7-7-7-7-7-7----7-7-7-7-7-7---------10/----------------|
---------------------------------------------------------|

thats pretty much the whole song :)
Related for Kids Of The Century tab
×
Best way to learn
"Kids Of The Century"