Guitaretab - guitar tabs
Song name
# A B C D E F G H I J K L M N O P Q R S T U V W X Y Z

Hellspawn - Durance Of Hate tab

e:-------------------------------|
B:-----------4-4-4---------------|
G:----------5-5-5----------------|
D:-------------------------------|
A:--------3----------------------|
E:----0-2------------------------|
    x2

e:----7777-444-888888-555-5--000-|
B:-------------------------------|
G:-------------------------------|
D:-------------------------------|
A:-------------------------------|
E:-------------------------------|
    x3
[ Tab from: http://www.guitaretab.com/h/hellspawn/96786.html ]