Song name
# A B C D E F G H I J K L M N O P Q R S T U V W X Y Z

Hellyeah - Rotten To The Core tab

Artist: Hellyeah
Song: Rotten To The Core
Album: Hellyeah

Tuning- Drop A#

I'm missing a lot of parts so I just put everything I know so far. Please rate it.

Intro/Verse
|-----------------------|
|-----------------------|
|-----------------------|
|-----------------------|Repeat/Palm mute
|-----------------------|
|-3--0-0-3-1-0-1-3------|  

|---------------------------------|
|---------------------------------|
|---------------------------------|	
|---------------------------------|Repeat
|--5-----3------------------------|
|----3-0---1-0-1-3-1-0-1-3-1-0-1--|

Chorus
|-------------------------------------------------------------|
|-------------------------------------------------------------|
|-------------------------------------------------------------|	
|-------------------------------------------------------------|
|-------------------------------------------------------------|
|--0-8~-0-3-5-10~-0-3-5-6-5-3-0--0-8~-0-3-5-10~-0-3-5-5b~5-3--|

Bridge
|---------------------------------------|
|---------------------------------------|
|---------------------------------------|	
|---------------------------------------|
|---------------------------------------|
|-13-12-0-15-13-0-13-12-0-12-13-0-10-12-|
P.M. .  .  .  . .  .  . .  .  . .  .  . 

|---------------------|
|---------------------|
|---------4---------4-|	
|---------3---------3-|
|---------2~--------2~|
|-2-2-2-2---2-2-2-2---|
  . . . .   . . . .

Solo  
THIS IS ALL I KNOW
|------------------|
|-----------20b----|
|-7/19-7/19--------|
|------------------|
|------------------|
|------------------|
Tap to rate this tab
 
# A B C D E F G H I J K L M N O P Q R S T U V W X Y Z