Hellyeah - Cowboy Way tab

Artist:HELLYEAH
Album:Stampeid
Song:Cowboy Way
Tuning:Drop B
Tabbed By: Tyler516 (tyler s)

intro/verse
B-1xx-0-0-0-0-0-------|
F#--------------------|
B---------------------|
E---------------------|
G#--------------------|
C#--------------------|

pre chorus
B-10-5-12-4----------------|
F#10-5-12-4----------------|
B-10-5-12-4----------------|
E--------------------------|
G#-------------------------|
C#-------------------------|

chorus
B--0---5---7--------------------------|
F#-0-3-5-3-7--------------------------|
B--0-5-5-5-7--------------------------|
E-------------------------------------|
G#------------------------------------|
C#------------------------------------|

bridge
B-00-00-00-00-000----|
F#-------------------|
B--------------------|
E--------------------|
G#-------------------|
C#-------------------|
P.M..................

No solo. solo may take a while to tab out.
please comment and rate
Enjoy!
Tap to rate this tab
 
# A B C D E F G H I J K L M N O P Q R S T U V W X Y Z