Song name
# A B C D E F G H I J K L M N O P Q R S T U V W X Y Z

Hellyeah - Cowboy Way tab

Band: HELLYEAH
Song: cowboy way
tuning: Drop A#
Tabbed by; tyler24031

intro/verse/outro
A#-1-0xx-xx0x00x0-----------|
F---------------------------|
A#--------------------------|
D#--------------------------|
G#--------------------------|
C---------------------------|

pre chorus
A#------5------3-----------|
F--3-33-5-5-55-4-----------|
A#-5-55-5-7-77-3-----------|
D#-------------------------|
G#-------------------------|
C--------------------------|

chorus
A#-0-0-2-3333-0-0-2-3333-0-0-2-3333-66666666--------|
F--0-0-2-3333-0-0-2-3333-0-0-2-3333-66666666--------|
A#-0-0-2-3333-0-0-2-3333-0-0-2-3333-66666666--------|
D#--------------------------------------------------|
G#--------------------------------------------------|
C---------------------------------------------------|

bridge
A#-00-00-00-00-00------------------------|
F#---------------------------------------|
A#---------------------------------------|
D#---------------------------------------|
G#---------------------------------------|
C----------------------------------------|

im the same person who made the first version of cowboy way but that version isnt as 
good as this one this is way more accirate and i recomend this one,also your going to have 
to find the rythum of the song in order for it to sound the same. please comment and rate, enjoy!
Tap to rate this tab
 
# A B C D E F G H I J K L M N O P Q R S T U V W X Y Z