Song name
# A B C D E F G H I J K L M N O P Q R S T U V W X Y Z

Hellyeah - Cowboy Way tab

My first tab
Artist: HELLYEAH
Album: Stampede
Song: Cowboy Way
Guitar tuning: Drop A#

Key:
* Palm mute
^ bend
P pull off
/ slide

VERSE 1: pretty simple, just listen for the picking pattern
C  ------------------------------------------------------|
G  ------------------------------------------------------|
D# ------------------------------------------------------|
A# ------------------------------------------------------|
F  ------------------------------------------------------|
A# ----1p0---0-0-0--0-0-0-0-0-0--0-0---------------------|
             * *    * * *   *    * *

PRE-CHORUS: also very simple
C  ------------------------------------------------------|
G  ------------------------------------------------------|
D# ------------------------------------------------------|
A# ------------------------------------------------------|
F  -----10-10/5-5------12-12/6-6-------------------------|
A# -----10-10/5-5------12-12/6-6-------------------------|


CHORUS:
 It can be tricky to learn but it is easy after you learn it. I assure you once you 
figure the rhythm, this is correct.
C  ------------------------------------------------------|
G  ------------------------------------------------------|
D# ------------------------------------------------------|
A# ------------------------------------------------------|
F  ---0---0-0-3---3-3-3---------0---0-0-3--3-3-----------|
A# ---0---0-0-3---3-3-3-5-3-3-0-0---0-0-3--3-3-6---------|
                                               ^
C  ------------------------------------------------------|
G  ------------------------------------------------------|
D# ------------------------------------------------------|
A# ------------------------------------------------------|
F  ---0---0-0-3---3-3-3---------6-6-6-6-6-6--------------|
A# ---0---0-0-3---3-3-3-5-3-3-0-6-6-6-6-6-6--------------|


BRIDGE: easiest part of the song, listen for the pattern. All palm muted.
C  ------------------------------------------------------|
G  ------------------------------------------------------|
D# ------------------------------------------------------|
A# --(THESE WITH ARROWS ARE PICKED FAST)-----------------|
F  --VVVVV-----VVVVV-----VVVVV-----VVVVV-----------------|
A# --0-0-0-----0-0-0-----0-0-0-----0-0-0----0-0-0-0------|
     * * *     * * *     * * *     * * *    * * * *


Sorry no solo :/ working on it now. give this a good rating if you thought i was accurate.

breakdown of the song:
VERSE RIFF
PRE-CHORUS
CHORUS
VERSE RIFF
PRE-CHORUS
CHORUS
BRIDGE
VERSE RIFF
CHORUS
VERSE RIFF
Tap to rate this tab
# A B C D E F G H I J K L M N O P Q R S T U V W X Y Z