Song name
# A B C D E F G H I J K L M N O P Q R S T U V W X Y Z

Hellyeah - You Wouldnt Know tab

You Wouldn't Know - HELLYEAH
Tuning: Drop A# - (A#, F, A#, D#, G, C)

Listening to the recording helps alot (duh).
I doubt I'll tab out the solo, but who knows.


Intro
C |---------------------------------------|
G |---------------------------------------|
D#|---------------------------------------|
A#|---5/7---7/11---11\5---5/7----7/11-----|
F |-0-----0------0------0-----0-----------|
A#|---------------------------------------|
   *Let Ring

C |----------------------------------------------------------------------------------|
G |----------------------------------------------------------------------------3-----|
D#|--------------------------------------0-----0-----0-------------------------------|
A#|---5/7---7/11---11\5---4h5---4------4---4-----4-----4-----------------------------|
F |-0-----0------0------0-----7---5--3-------3-----3-----3------4----5--4------------|
A#|----------------------------------------------------------5----5--------5---------|
    *Let Ring

C |--------------------------------------------------------------------------------------------------------------|
G |------------------------------------------------------------------------------------0--------------3----------|
D#|------------------------------------------------------------------------0-----0-------0-----------------------|
A#|---5/7---7/11---11\5---11b12r11~~-----5/7---7/11---11\5---4h5---4-----4---4-----4-------4-------0-------------|
F |-0-----0------0------0--------------0-----0------0------0-----7---5-3-------3-----3----------4----------------|
A#|-------------------------------------------------------------------------------------------5------------------|


Verse
C |----------------------------------------------------------------------------------|
G |----------------------------------------------------------------------------------|
D#|----------------------------------------------------------------------------------|
A#|-55555555-7777-2222-555-444-222-555-444-222-22222222-44444444-55555555-44444444---|
F |-00000000-0000-0000-000-000-000-000-000-000-00000000-00000000-00000000-00000000---|
A#|----------------------------------------------------------------------------------|

C |----------------------------------------------------------------------------------|
G |----------------------------------------------------------------------------------|
D#|----------------------------------------------------------------------------------|
A#|----------------------------------------------------------------------------------|
F |-0000000022222222333333335555-55555555--------------------------------------------|
A#|-0000000022222222333333335555-55555555--------------------------------------------|
 PM .....................................

Chorus (slight variation from the intro)
C |---------------------------------------|
G |---------------------------------------|
D#|---------------------------------------|
A#|---5/7---7/11---11\5---5/7----7/11-----|
F |-0-----0------0------0-----0-----------|
A#|---------------------------------------|
   *Let Ring

C |-----------------------------------------------------------------------------------|
G |-------------------------------------------------------------------3-(Gtr 2 only)--|
D#|--------------------------------------0-----0-----0--------------------------------|
A#|---5/7---7/11---11\5---4h5---4------4---4-----4-----4------------------------------|
F |-0-----0------0------0-----7---5--3-------3-----3-----3------4---------------------|
A#|----------------------------------------------------------5------------------------|
    *Let Ring          PM     .   .

C |-------------------------------------------------------------------------------------------------------|
G |----------------------------------------------------------------------------------------------------3--|
D#|------------------------------------------------------------------------0-----0-----0------------------|
A#|---5/7---7/11---11\5---11b12r11~~-----5/7---7/11---11\5---4h5---4-----4---4-----4-----4----------------|
F |-0-----0------0------0--------------0-----0------0------0-----7---5-3-------3-----3-----3-------4------|
A#|---------------------------------------------------------------------------------------------5---------|


Bridge/Solo Rhythm
C |-----------------------------------------------------------------------------------------------------|
G |-----------------------------------------------------------------------------------------------------|
D#|-----------------------------------------------------------------------------------------------------|
A#|-----------------------------------------------------------------------------------------------------|
F |-5h77-5h77--7--7--5h77--5h77-5h77--7--7--12h11-7---555-555--5--5-5h777--333-333-222-222--------------|
A#|-5h77-5h77--7--7--5h77--5h77-5h77--7--7--12h11-7---555-555--5--5-5h777--333-333-222-222--------------|

Outro
C |---------------------------------------|
G |---------------------------------------|
D#|---------------------------------------|
A#|---5/7---7/11---11\5---5/7----7/11-----|
F |-0-----0------0------0-----0-----------|
A#|---------------------------------------|
   *Let Ring

C |-------------------------------------------------------------------------(7)--------|
G |---------------------------------------------------0------------------------(7)-----|
D#|--------------------------------------0-----0--------0---------------(5)-------(7)--|
A#|---5/7---7/11---11\5---4h5---4------4---4-----4--------4----------------------------|
F |-0-----0------0------0-----7---5--3-------3-----3--------------4--------------------|
A#|------------------------------------------------------------5-----------------------|
    *Let Ring                                               Harmonics    .   .  .  .

C |------------------------------------|
G |------------------------------------|
D#|------------------------------------|
A#|---5/7---7/11---11\5---11b12r11~~---|
F |-0-----0------0------0--------------|
A#|------------------------------------|
Tap to rate this tab
 
# A B C D E F G H I J K L M N O P Q R S T U V W X Y Z