Song name
# A B C D E F G H I J K L M N O P Q R S T U V W X Y Z

Hellyeah - Goddamn tab

Help us improve GuitareTab! Take a short survey!
Drop D tuning down two & a half steps.
Bb,F,Bb,Eb,G,C

I noticed that there was no tabs for this song, so I figured it out.
First tab on here.  Watch me playing this song on youtube.
www.youtube.com/CreepinDeath101
Enjoy!

Intro:  w/ slide                      2x
|-------------------|-------------------|
|-------------------|-------------------|
|-------------------|-------------------|
|-------------------|-------------------|
|------------5\0/5--|------------5\0/5--|
|--000000----5\0/5--|--000000----5\0/5--|
pm ......              ......

Pre-Chorus:                           1,2,3
|-----------------|------------------------|
|-----------------|------------------------|
|-----------------|------------------------|
|-----------------|------------------------|
|------------5\2--|----------3\0-----------|
|--2-0-2-0---5\2--|--0-2-0---3\0---000000--|
pm                                 ......

                                 4
|-----------------|---------------|
|-----------------|---------------|
|-----------------|---------------|
|-----------------|---------------|
|------------5\2--|----------0/5--|
|--2-0-2-0---5\2--|--0-2-0---0/5--|


Chorus:     5x               Sixth time
|-------------|  |---------------------|
|-------------|  |---------------------|
|-------------|  |---------------------|
|-------------|  |---------------------|
|-------------|  |---------------------|
|--2-1-3-2-1--|  |--2-1-3-2-1-2-0-(0)--|


Verse:                                                                  4x
|-------------------------------------------------------------------------|
|-------------------------------------------------------------------------|
|-------------------------------------------------------------------------|
|-------------------------------------------------------------------------|
|-------------------------------------------------------------------------|
|--2-2---2~--2-2-2-2-2-2---2~--2-2-000-2-2---2~--2-2-2-2-2-2---2~--2-3-0--|
pm . .   *   . . . . . .   *   . . ... . .   *   . . . . . .   *   . .
         PH                PH                PH                PH
Chorus:     5x               Sixth time
|-------------|  |---------------------|
|-------------|  |---------------------|
|-------------|  |---------------------|
|-------------|  |---------------------|
|-------------|  |---------------------|
|--2-1-3-2-1--|  |--2-1-3-2-1-2-0-(0)--|


Pre-Chorus:                           1,2,3
|-----------------|------------------------|
|-----------------|------------------------|
|-----------------|------------------------|
|-----------------|------------------------|
|------------5\2--|----------3\0-----------|
|--2-0-2-0---5\2--|--0-2-0---3\0---000000--|
pm                                 ......

                                 4
|-----------------|---------------|
|-----------------|---------------|
|-----------------|---------------|
|-----------------|---------------|
|------------5\2--|----------0/5--|
|--2-0-2-0---5\2--|--0-2-0---0/5--|


Chorus:     5x               Sixth time
|-------------|  |---------------------|
|-------------|  |---------------------|
|-------------|  |---------------------|
|-------------|  |---------------------|
|-------------|  |---------------------|
|--2-1-3-2-1--|  |--2-1-3-2-1-2-0-(0)--|


Verse:                                                                  4x
|-------------------------------------------------------------------------|
|-------------------------------------------------------------------------|
|-------------------------------------------------------------------------|
|-------------------------------------------------------------------------|
|-------------------------------------------------------------------------|
|--2-2---2~--2-2-2-2-2-2---2~--2-2-000-2-2---2~--2-2-2-2-2-2---2~--2-3-0--|
pm . .   *   . . . . . .   *   . . ... . .   *   . . . . . .   *   . .
         PH                PH                PH                PH
Chorus:     5x               Sixth time
|-------------|  |---------------------|
|-------------|  |---------------------|
|-------------|  |---------------------|
|-------------|  |---------------------|
|-------------|  |---------------------|
|--2-1-3-2-1--|  |--2-1-3-2-1-2-0-(0)--|


Pre-Chorus:                           1,2,3
|-----------------|------------------------|
|-----------------|------------------------|
|-----------------|------------------------|
|-----------------|------------------------|
|------------5\2--|----------3\0-----------|
|--2-0-2-0---5\2--|--0-2-0---3\0---000000--|
pm                                 ......

                                 4        Let ring
|-----------------|---------------|    |--3--(3)--|
|-----------------|---------------|    |--3--(3)--|
|-----------------|---------------|    |--0--(0)--|
|-----------------|---------------|    |--0--(0)--|
|------------5\2--|----------0/5--|    |----------|
|--2-0-2-0---5\2--|--0-2-0---0/5--|    |----------|


Half time feel:                     4x
|-------------------------------------|
|-------------------------------------|
|-------------------------------------|
|-------------------------------------|
|--5-4-3-------------4-3-2-3-2--------|
|--------5-4-3-2-3-4-----------3-2-0--|
pm . . . . . . . . . . . . . . . . .

                                    4x        Let ring
|-------------------------------------|    |--3--(3)--|
|-------------------------------------|    |--3--(3)--|
|-------------------------------------|    |--0--(0)--|
|-------------------------------------|    |--0--(0)--|
|--5-4-3-------------4-3-2-3-2--------|    |----------|
|--------5-4-3-2-3-4-----------3-2-0--|    |----------|


Pre-Chorus:                           1,2,3
|-----------------|------------------------|
|-----------------|------------------------|
|-----------------|------------------------|
|-----------------|------------------------|
|------------5\2--|----------3\0-----------|
|--2-0-2-0---5\2--|--0-2-0---3\0---000000--|
pm                                 ......

                                 4
|-----------------|---------------|
|-----------------|---------------|
|-----------------|---------------|
|-----------------|---------------|
|------------5\2--|----------0/5--|
|--2-0-2-0---5\2--|--0-2-0---0/5--|


Pre-Chorus:                           1,2,3
|-----------------|------------------------|
|-----------------|------------------------|
|-----------------|------------------------|
|-----------------|------------------------|
|------------5\2--|----------3\0-----------|
|--2-0-2-0---5\2--|--0-2-0---3\0---000000--|
pm                                 ......

                                 4       Let ring
|-----------------|---------------|    |--3--(3)--|
|-----------------|---------------|    |--3--(3)--|
|-----------------|---------------|    |--0--(0)--|
|-----------------|---------------|    |--0--(0)--|
|------------5\2--|----------0/5--|    |----------|
|--2-0-2-0---5\2--|--0-2-0---0/5--|    |----------|


End Riff:
|----------------|
|----------------|
|----------------|
|----------------|
|----------------|
|--2-0-2-0---2~--|
pm . . . .   *


Legend:

pm ...   =  Palm Mute


/        =  Slide up


\        =  Slide down

*
PH       =  Pinch Harmonic


~        =  Vibrato


If you noticed that I had made some mistakes, please feel free to email me comments 
corrections to:  edjericon@hotmail.com
Related for Goddamn tab