Song name
# A B C D E F G H I J K L M N O P Q R S T U V W X Y Z

Helmet - Thick tab

Help us improve GuitareTab! Take a short survey!
-----------------------------------------------------------------------------
                           THICK - Helmet
-----------------------------------------------------------------------------

Tabbed by an17nin17
Email - c.norman83@ntlworld.com

Dropped D tuning - D, A, D, G, B, E

Intro

|-----------------0~~-|---------------0~~-|---------------4-4-4-4-4-4-4-|
|-----------------0~~-|---------------0~~-|---------------4-4-4-4-4-4-4-|
|-----------------3~~-|---------------3~~-|---------------4-4-4-4-4-4-4-|
|-9-0-0-8-9-0-0~~-----|-9-0--0--0-0~~-----|-9-0-0-8-9-0-2-2-2-2-2-2-2-2-|
|-9-0-0-8-9-0-0~~-----|-9-0--0--0-0~~-----|-9-0-0-8-9-0-2-2-2-2-2-2-2-2-|
|-9-0-0-8-9-0-0~~-----|-9-0--0--0-0~~-----|-9-0-0-8-9-0-2-2-2-2-2-2-2-2-|
                          PM...............
Verse

|-------------------------------------------|
|-------------------------------------------|
|-------------------------------------------|
|-0-2-2-3---3---3---3-0-2-2-3---3---3-0-3-5-|
|-0-2-2-3---3---3---3-0-2-2-3---3---3-0-3-5-|
|-0-2-2-3---3---3---3-0-2-2-3---3---3-0-3-5-|
  Play x 6

Chorus

|-------6---------4--5-|-------6---5--5--5--5--5-|
|-------6---------4--5-|-------6---5--5--5--5--5-|
|-------6---------4--5-|-------6---5--5--5--5--5-|
|-0--0--4---0--0--2--3-|-0--0--4---3--3--3--3--3-|
|-0--0--4---0--0--2--3-|-0--0--4---3--3--3--3--3-|
|-0--0--4---0--0--2--3-|-0--0--4---3--3--3--3--3-|
  Play x 2

|-------------------------------------------|
|-------------------------------------------|
|-------------------------------------------|
|-0-2-2-3---3---3---3-0-2-2-3---3---3-0-3-5-|
|-0-2-2-3---3---3---3-0-2-2-3---3---3-0-3-5-|
|-0-2-2-3---3---3---3-0-2-2-3---3---3-0-3-5-|
  Play x 6

|-------6---------4--5-|-------6---5--5--5--5--5-|
|-------6---------4--5-|-------6---5--5--5--5--5-|
|-------6---------4--5-|-------6---5--5--5--5--5-|
|-0--0--4---0--0--2--3-|-0--0--4---3--3--3--3--3-|
|-0--0--4---0--0--2--3-|-0--0--4---3--3--3--3--3-|
|-0--0--4---0--0--2--3-|-0--0--4---3--3--3--3--3-|
  Play x 2

Solo

|---------------------------------------------------|
|---------------------------------------------------|
|---------------------------------------------------|
|-2-3-0-2---2---2-3-0-2---2---2-3-0-2---2---2-3-0-2-|
|-2-3-0-2---2---2-3-0-2---2---2-3-0-2---2---2-3-0-2-|
|-2-3-0-2---2---2-3-0-2---2---2-3-0-2---2---2-3-0-2-|
  Play x 6

|-------6---------4--5-|-------6---5--5--5--5--5-|
|-------6---------4--5-|-------6---5--5--5--5--5-|
|-------6---------4--5-|-------6---5--5--5--5--5-|
|-0--0--4---0--0--2--3-|-0--0--4---3--3--3--3--3-|
|-0--0--4---0--0--2--3-|-0--0--4---3--3--3--3--3-|
|-0--0--4---0--0--2--3-|-0--0--4---3--3--3--3--3-|
  Play x 2

Outro

|-5--5--5--5--5--5--5--5--5-|-------------|
|-5--5--5--5--5--5--5--5--5-|-------------|
|-5--5--5--5--5--5--5--5--5-|-------------|
|-3--3--3--3--3--3--3--3--3-|-9-0-0-8-9-0-|
|-3--3--3--3--3--3--3--3--3-|-9-0-0-8-9-0-|
|-3--3--3--3--3--3--3--3--3-|-9-0-0-8-9-0-|
  Play x 2                  |

And That's It.
Related for Thick tab