Guitaretab - guitar tabs
Song name
# A B C D E F G H I J K L M N O P Q R S T U V W X Y Z

Helmet - Overrated tab

-----------------------------------------------------------------------------
                          OVERRATED - Helmet
-----------------------------------------------------------------------------

Tabbed by an17nin17
Email - c.norman83@ntlworld.com

Drop C# Tuning - C#, G#, C#, F#, A#, D# 
 
Intro 

|---------------------------------| 
|-----------------5-5---5-5---5-5-| 
|-----------------4-4---4-4---4-4-| 
|-0-------2-------2-2---2-2---2-2-| 
|-0-------2-----------------------| 
|-0-------2-----------------------| 
  Play x 4 

Pre-Chorus 

|-----------------------------------------|-----------------------------| 
|-----------------------------------------|-----------------------------| 
|-----------------------------------------|-----------------------------| 
|-5-5-5-5-5-5-5-5-5-5-5-5-7-7-7-7-0-0-0-0-|-0-1-2-2-2-2-2-2-2-2-2-2-2-2-| 
|-5-5-5-5-5-5-5-5-5-5-5-5-7-7-7-7-0-0-0-0-|-0-1-2-2-2-2-2-2-2-2-2-2-2-2-| 
|-5-5-5-5-5-5-5-5-5-5-5-5-7-7-7-7-0-0-0-0-|-0-1-2-2-2-2-2-2-2-2-2-2-2-2-| 
[ Tab from: http://www.guitaretab.com/h/helmet/125598.html ]
|-----------------------------------------------------------------------| 
|-----------------------------------------------------------------------| 
|-----------------------------------------------------------------------| 
|-10-10-10-10-10-10-10-10-10-10-10-10-10-10-10-10-0-0-0-0-0-0-0-0-1-0-0-| 
|-10-10-10-10-10-10-10-10-10-10-10-10-10-10-10-10-0-0-0-0-0-0-0-0-1-0-0-| 
|-10-10-10-10-10-10-10-10-10-10-10-10-10-10-10-10-0-0-0-0-0-0-0-0-1-0-0-| 
                                                                    PM. 

|---------------------------| 
|---------------------------| 
|---------------------------| 
|-1-0-0-1-0-0-1-1-1-1-1-1-1-| 
|-1-0-0-1-0-0-1-1-1-1-1-1-1-| 
|-1-0-0-1-0-0-1-1-1-1-1-1-1-| 
    PM.   PM. 

Chorus 
                           1,2,3,4| 
|-------------------------|-------| 
|-------------------------|-------| 
|-------------------------|-------| 
|-0-2-2-0-2-0-2/5---5~~-3-|-5-3-5-| 
|-0-2-2-0-2-0-2/5---5~~-3-|-5-3-5-| 
|-0-2-2-0-2-0-2/5---5~~-3-|-5-3-5-| 
  Play x 5 

Solo 

|---------------------------------| 
|-----------------5-5---5-5---5-5-| 
|-----------------4-4---4-4---4-4-| 
|-0-------2-------2-2---2-2---2-2-| 
|-0-------2-----------------------| 
|-0-------2-----------------------| 
  Play x 3 

|-----------------------------------------|-----|-------------------------| 
|-----------------------------------------|-----|-------------------------| 
|-----------------------------------------|-----|-------------------------| 
|-5-5-5-5-5-5-5-5-5-5-5-5-7-7-7-7-0-0-0-0-|-0-1-|-2-2-2-2-2-2-2-2-2-2-2-2-| 
|-5-5-5-5-5-5-5-5-5-5-5-5-7-7-7-7-0-0-0-0-|-0-1-|-2-2-2-2-2-2-2-2-2-2-2-2-| 
|-5-5-5-5-5-5-5-5-5-5-5-5-7-7-7-7-0-0-0-0-|-0-1-|-2-2-2-2-2-2-2-2-2-2-2-2-| 
                                          | Play x 3 
                 1,2| 
|-------------------| 
|-------------------| 
|-------------------| 
|-10-10-10-10-10-10-| 
|-10-10-10-10-10-10-| 
|-10-10-10-10-10-10-|

And That's It.
Related for Overrated tab